DADGAD

01234567891011121314151617181920212223
E
B
G
D
A
E
B
0 1 2 3 4 5 6 7 8 9 10 11 12 13 14 15 16 17 18 19 20 21 22 23
(/) Slide Up  (\) Slide Down  (h) Hammer On  (p) Pull Off  (b) Bend (r) Release (v) Vibrato

Stave 1:

E|----------------------------|--
B|----------------------------|--
G|-----2--4--6--7--9--11--12--|--
D|----------------------------|--
A|----------------------------|--
E|--0-------------------------|--

Stave 2:

E|--0--0--0--0--|--
B|--0--0--2--5--|--
G|--4--6--0--0--|--
D|--5--7--2--5--|--
A|--------------|--
E|--5--7--2--5--|--

							http://www.guitartabcreator.com
Chords

Instruments
{"strings":[[[".",".",".",".",".",".",".",".","|"],[".",".",".",".",".",".",".",".","|"],[".",2,4,6,7,9,11,12,"|"],[".",".",".",".",".",".",".",".","|"],[".",".",".",".",".",".",".",".","|"],[0,".",".",".",".",".",".",".","|"]],[[0,0,0,0,"|"],[0,0,2,5,"|"],[4,6,0,0,"|"],[5,7,2,5,"|"],[".",".",".",".","|"],[5,7,2,5,"|"]]],"numberofstrings":6,"notes":["E","B","G","D","A","E","B"],"capo":0,"stringnotes":["E4","B3","G3","D3","A2","E2"],"comments":["Stave 1:","Stave 2:"],"timing":[["W","W","W","W","W","W","W","W"],["W","W","W","W","W"]],"timingvisible":false,"tabcounter":5,"stave":1,"totalstaves":2,"instrument":"6guitar","selectedtuning":"6_standard","version":"13"}

Member for

5 years 3 months
Submitted by rockstarguitar on Wed, 2021-01-20 13:31