Crossroads

01234567891011121314151617181920212223
E
B
G
D
A
E
B
0 1 2 3 4 5 6 7 8 9 10 11 12 13 14 15 16 17 18 19 20 21 22 23
(/) Slide Up  (\) Slide Down  (h) Hammer On  (p) Pull Off  (b) Bend (r) Release (v) Vibrato

Stave 1:

E|-------------------------|--------
B|-------------------------|--------
G|-------------------------|--------
D|-----7--5--7--5h7--5-----|--x--4--
A|--0-------------------7--|--------
E|-------------------------|--------

Stave 2:

E|-------------------------|--------------
B|-------------------------|--------------
G|-----7--5--7--5h7--5-----|--------------
D|--0-------------------7--|--x--2--------
A|-------------------------|--------------
E|-------------------------|--------------

Stave 3:

E|-------------------------|--------------
B|-------------------------|--------------
G|-------------------------|--------------
D|-----7--5--7--5h7--5-----|--x--2--------
A|--0-------------------7--|--------------
E|-------------------------|--------------

Stave 4:

E|-------------------------|--------------------
B|-------------------------|--------------------
G|-----9--7--9--7h9--7-----|--------------------
D|----------------------9--|--------------------
A|-------------------------|--------------------
E|--0----------------------|--------------------

Stave 5:

E|-------------------------|--
B|-------------------------|--
G|-----7--5--7--5h7--5-----|--
D|--0-------------------7--|--
A|-------------------------|--
E|-------------------------|--

Stave 6:

E|-------------------------|--
B|-------------------------|--
G|-------------------------|--
D|-----7--5--7--5h7--5-----|--
A|--0-------------------7--|--
E|-------------------------|--

Stave 7:

E|--------------------------|--
B|--------------------------|--
G|--------------------------|--
D|--------------------------|--
A|--7--7--7--7--7--7--7--7--|--
E|--5--5--5--5--5--5--5--5--|--

							http://www.guitartabcreator.com
Chords

Instruments
{"strings":[[[".",".",".",".",".",".",".",".",".","|",".","_"],[".",".",".",".",".",".",".",".",".","|",".","_"],[".",".",".",".",".",".",".",".",".","|",".","_"],[".",7,5,7,5,"h",7,5,".","|","x",4],[0,".",".",".",".",".",".",".",7,"|",".","_"],[".",".",".",".",".",".",".",".",".","|",".","_"]],[[".",".",".",".",".",".",".",".",".","|",".","_","_","_"],[".",".",".",".",".",".",".",".",".","|",".","_","_","_"],[".",7,5,7,5,"h",7,5,".","|",".","_","_","_"],[0,".",".",".",".",".",".",".",7,"|","x",2,"_","_"],[".",".",".",".",".",".",".",".",".","|",".","_","_","_"],[".",".",".",".",".",".",".",".",".","|",".","_","_","_"]],[[".",".",".",".",".",".",".",".",".","|",".",".","_","_"],[".",".",".",".",".",".",".",".",".","|",".",".","_","_"],[".",".",".",".",".",".",".",".",".","|",".",".","_","_"],[".",7,5,7,5,"h",7,5,".","|","x",2,"_","_"],[0,".",".",".",".",".",".",".",7,"|",".",".","_","_"],[".",".",".",".",".",".",".",".",".","|",".",".","_","_"]],[[".",".",".",".",".",".",".",".",".","|",".",".",".","_","_","_"],[".",".",".",".",".",".",".",".",".","|",".",".",".","_","_","_"],[".",9,7,9,7,"h",9,7,".","|",".",".",".","_","_","_"],[".",".",".",".",".",".",".",".",9,"|",".",".",".","_","_","_"],[".",".",".",".",".",".",".",".",".","|",".",".",".","_","_","_"],[0,".",".",".",".",".",".",".",".","|",".",".",".","_","_","_"]],[[".",".",".",".",".",".",".",".",".","|"],[".",".",".",".",".",".",".",".",".","|"],[".",7,5,7,5,"h",7,5,".","|"],[0,".",".",".",".",".",".",".",7,"|"],[".",".",".",".",".",".",".",".",".","|"],[".",".",".",".",".",".",".",".",".","|"]],[[".",".",".",".",".",".",".",".",".","|"],[".",".",".",".",".",".",".",".",".","|"],[".",".",".",".",".",".",".",".",".","|"],[".",7,5,7,5,"h",7,5,".","|"],[0,".",".",".",".",".",".",".",7,"|"],[".",".",".",".",".",".",".",".",".","|"]],[[".",".",".",".",".",".",".",".","|"],[".",".",".",".",".",".",".",".","|"],[".",".",".",".",".",".",".",".","|"],[".",".",".",".",".",".",".",".","|"],[7,7,7,7,7,7,7,7,"|"],[5,5,5,5,5,5,5,5,"|"]]],"numberofstrings":6,"notes":["E","B","G","D","A","E","B"],"capo":0,"stringnotes":["E4","B3","G3","D3","A2","E2"],"comments":["Stave 1:","Stave 2:","Stave 3:","Stave 4:","Stave 5:","Stave 6:","Stave 7:"],"timing":[["W","W","W","W","W",null,"W","W","W",null,null,"W","W"],["W","W","W","W","W",null,"W","W","W",null,null,null,"W"],["W","W","W","W","W",null,"W","W","W",null,null,null,null,"W"],["W","W","W","W","W",null,"W","W","W"],["W","W","W","W","W",null,"W","W","W",null,"W"],["W","W","W","W","W",null,"W","W","W"],["W","W","W","W","W","W","W","W"]],"timingvisible":false,"tabcounter":8,"stave":4,"totalstaves":7,"instrument":"6guitar","selectedtuning":"6_standard","version":"13"}

Member for

5 years 3 months
Submitted by rockstarguitar on Sat, 2021-01-16 10:40