California Dreamin'

01234567891011121314151617181920212223
E
B
G
D
A
E
B
0 1 2 3 4 5 6 7 8 9 10 11 12 13 14 15 16 17 18 19 20 21 22 23
(/) Slide Up  (\) Slide Down  (h) Hammer On  (p) Pull Off  (b) Bend (r) Release (v) Vibrato

Capo Fret 4

Stave 1:

E|-----------------------|-----------------------|-----------------------|--0--|--
B|--------0-----3--1--0--|--------0-----3--1--0--|--------0-----3--1--0--|--0--|--
G|-----2-----------------|-----2-----------------|-----2-----------------|--2--|--
D|--2--------2-----------|--2--------2-----------|--2--------2-----------|--0--|--
A|-----------------------|-----------------------|-----------------------|--2--|--
E|-----------------------|-----------------------|-----------------------|--0--|--

Stave 2:

E|--0--------------|--0-----------------------|--
B|--1--------------|--1--------0--1--3--1--0--|--
G|--2--------------|--2-----------------------|--
D|--2--------------|--2-----------------------|--
A|--0--------------|--0-----------------------|--
E|-----------------|--------------------------|--

							http://www.guitartabcreator.com
Chords

Instruments
{"strings":[[[".",".",".",".",".",".",".","|",".",".",".",".",".",".",".","|",".",".",".",".",".",".",".","|",0,"|"],[".",".",0,".",3,1,0,"|",".",".",0,".",3,1,0,"|",".",".",0,".",3,1,0,"|",0,"|"],[".",2,".",".",".",".",".","|",".",2,".",".",".",".",".","|",".",2,".",".",".",".",".","|",2,"|"],[2,".",".",2,".",".",".","|",2,".",".",2,".",".",".","|",2,".",".",2,".",".",".","|",0,"|"],[".",".",".",".",".",".",".","|",".",".",".",".",".",".",".","|",".",".",".",".",".",".",".","|",2,"|"],[".",".",".",".",".",".",".","|",".",".",".",".",".",".",".","|",".",".",".",".",".",".",".","|",0,"|"]],[[0,"_","_","_","_","|",0,"_","_",".",".",".",".",".","|"],[1,"_","_","_","_","|",1,"_","_",0,1,3,1,0,"|"],[2,"_","_","_","_","|",2,"_","_",".",".",".",".",".","|"],[2,"_","_","_","_","|",2,"_","_",".",".",".",".",".","|"],[0,"_","_","_","_","|",0,"_","_",".",".",".",".",".","|"],[".","_","_","_","_","|",".","_","_",".",".",".",".",".","|"]]],"numberofstrings":6,"notes":["E","B","G","D","A","E","B"],"capo":"4","stringnotes":["E4","B3","G3","D3","A2","E2"],"comments":["Stave 1:","Stave 2:"],"timing":[["W","W","W","W","W","W","W",null,"W","W","W","W","W","W","W",null,"W","W","W","W","W","W","W",null,"W",null,"W"],["W","W","W","W",null,null,"W",null,null,"W","W","W","W","W"]],"timingvisible":false,"tabcounter":15,"stave":1,"totalstaves":2,"instrument":"6guitar","selectedtuning":"6_standard","version":"13"}

Member for

5 years 3 months
Submitted by rockstarguitar on Sat, 2021-02-20 00:13