Baby What You Want Me To Do

01234567891011121314151617181920212223
E
B
G
D
A
E
B
0 1 2 3 4 5 6 7 8 9 10 11 12 13 14 15 16 17 18 19 20 21 22 23
(/) Slide Up  (\) Slide Down  (h) Hammer On  (p) Pull Off  (b) Bend (r) Release (v) Vibrato

Stave 1:

E|--------------------------------|--------|--
B|--------------------------------|--------|--
G|--------------------------------|--------|--
D|--------------------------------|--x--4--|--
A|-----------2-----4-----5-----4--|--------|--
E|--------0-----0-----0-----0-----|--------|--

Stave 2:

E|--------------------------|--------|--
B|--------------------------|--------|--
G|--------------------------|--------|--
D|-----2-----4-----5-----4--|--x--2--|--
A|--0-----0-----0-----0-----|--------|--
E|--------------------------|--------|--

Stave 3:

E|--------------------------|--------|--
B|--------------------------|--------|--
G|--------------------------|--------|--
D|--------------------------|--x--2--|--
A|-----2-----4-----5-----4--|--------|--
E|--0-----0-----0-----0-----|--------|--

Stave 4:

E|--2--------------------------|--0--------------------------|--
B|--0--------------------------|--2--------------------------|--
G|--2--------------------------|--0--------------------------|--
D|--1--------------------------|--2--------------------------|--
A|--2--------------------------|--0--------------------------|--
E|-----------------------------|-----------------------------|--

Stave 5:

E|--------------------------|--2--------------------------|--
B|--------------------------|--0--------------------------|--
G|--------------------------|--2--------------------------|--
D|--------------------------|--1--------------------------|--
A|-----2-----4-----5-----4--|--2--------------------------|--
E|--0-----0-----0-----0-----|-----------------------------|--

							http://www.guitartabcreator.com
Chords

Instruments
{"strings":[[[".","_",".",".",".",".",".",".",".",".","|",".",".","|"],[".","_",".",".",".",".",".",".",".",".","|",".",".","|"],[".","_",".",".",".",".",".",".",".",".","|",".",".","|"],[".","_",".",".",".",".",".",".",".",".","|","x",4,"|"],[".","_",".",2,".",4,".",5,".",4,"|",".",".","|"],[".","_",0,".",0,".",0,".",0,".","|",".",".","|"]],[[".",".",".",".",".",".",".",".","|",".",".","|"],[".",".",".",".",".",".",".",".","|",".",".","|"],[".",".",".",".",".",".",".",".","|",".",".","|"],[".",2,".",4,".",5,".",4,"|","x",2,"|"],[0,".",0,".",0,".",0,".","|",".",".","|"],[".",".",".",".",".",".",".",".","|",".",".","|"]],[[".",".",".",".",".",".",".",".","|",".",".","|"],[".",".",".",".",".",".",".",".","|",".",".","|"],[".",".",".",".",".",".",".",".","|",".",".","|"],[".",".",".",".",".",".",".",".","|","x",2,"|"],[".",2,".",4,".",5,".",4,"|",".",".","|"],[0,".",0,".",0,".",0,".","|",".",".","|"]],[[2,"_","_","_","_","_","_","_","_","|",0,"_","_","_","_","_","_","_","_","|"],[0,"_","_","_","_","_","_","_","_","|",2,"_","_","_","_","_","_","_","_","|"],[2,"_","_","_","_","_","_","_","_","|",0,"_","_","_","_","_","_","_","_","|"],[1,"_","_","_","_","_","_","_","_","|",2,"_","_","_","_","_","_","_","_","|"],[2,"_","_","_","_","_","_","_","_","|",0,"_","_","_","_","_","_","_","_","|"],[".","_","_","_","_","_","_","_","_","|",".","_","_","_","_","_","_","_","_","|"]],[[".",".",".",".",".",".",".",".","|",2,"_","_","_","_","_","_","_","_","|"],[".",".",".",".",".",".",".",".","|",0,"_","_","_","_","_","_","_","_","|"],[".",".",".",".",".",".",".",".","|",2,"_","_","_","_","_","_","_","_","|"],[".",".",".",".",".",".",".",".","|",1,"_","_","_","_","_","_","_","_","|"],[".",2,".",4,".",5,".",4,"|",2,"_","_","_","_","_","_","_","_","|"],[0,".",0,".",0,".",0,".","|",".","_","_","_","_","_","_","_","_","|"]]],"numberofstrings":6,"notes":["E","B","G","D","A","E","B"],"capo":0,"stringnotes":["E4","B3","G3","D3","A2","E2"],"comments":["Stave 1:","Stave 2:","Stave 3:","Stave 4:","Stave 5:"],"timing":[[null,null,"W","W","W","W","W","W","W","W",null,null,null,"W"],["W","W","W","W","W","W","W","W",null,null,null,"W"],["W","W","W","W","W","W","W","W",null,null,null,"W"],["W",null,null,null,null,null,null,null,null,null,"W"],["W","W","W","W","W","W","W","W",null,"W"]],"timingvisible":false,"tabcounter":19,"stave":4,"totalstaves":5,"instrument":"6guitar","selectedtuning":"6_standard","version":"13"}

Member for

5 years 3 months
Submitted by rockstarguitar on Sat, 2021-01-16 10:48