Sound will begin in 5 seconds

Get the Funk Out solo tapping

01234567891011121314151617181920212223
E
B
G
D
A
E
B
0 1 2 3 4 5 6 7 8 9 10 11 12 13 14 15 16 17 18 19 20 21 22 23
Song Science #1: How Pros Use 6 Chords to Write Hit Songs
(/) Slide Up  (\) Slide Down  (h) Hammer On  (p) Pull Off  (b) Bend (r) Release (v) Vibrato

Stave 1:

E|------------------------------13--6--10-----------------------
B|--------------------------------------------------------------
G|----------------15--7--10-------------------10--15--10--7-----
D|--15--8--10---------------------------------------------------
A|--------------------------------------------------------------
E|--------------------------------------------------------------

Stave 2:

E|---------------------------------------------------------
B|---------------------------------------------------------
G|----------------------------------17--9--7-----17--9--7--
D|--8--15--8--10-----17--10--12----------------------------
A|---------------------------------------------------------
E|---------------------------------------------------------

Stave 3:

E|--15--8--12-----15--12--8-----------------------------------
B|------------------------------------------------------------
G|------------------------------12--17--12--9-----------------
D|------------------------------------------------17--10--12--
A|------------------------------------------------------------
E|------------------------------------------------------------

Stave 4:

E|-----------------------------------------------18--11--15-----
B|--------------------------------------------------------------
G|--------------------------------20--12--15--------------------
D|--17--10--12-----20--13--15-----------------------------------
A|--------------------------------------------------------------
E|--------------------------------------------------------------

Stave 5:

E|--18--15--11-------------------------------------------
B|-------------------------------------------------------
G|-----------------15--20--15--12------------------------
D|------------------------------------13--20--13--15-----
A|-------------------------------------------------------
E|-------------------------------------------------------

http://www.guitartabcreator.com
Guitar Tab Creator is intended to store guitar tab created through the tool. It currently does not support in-line text editing. Any text you place in here will be lost. If you need to comment on your tab, please use the "Tab Notes" section located below.