Sound will begin in 5 seconds

Egen chord progression i Ass (slow soul/blues)

Chords
01234567891011121314151617181920212223
E
B
G
D
A
E
B
0 1 2 3 4 5 6 7 8 9 10 11 12 13 14 15 16 17 18 19 20 21 22 23
Song Science #1: How Pros Use 6 Chords to Write Hit Songs
(/) Slide Up  (\) Slide Down  (h) Hammer On  (p) Pull Off  (b) Bend (r) Release (v) Vibrato

Stave 1:

E|----------------------------------8---8------------------------3--1--
B|--11-----11-----------------------8---8------------------------3--1--
G|--10h12--10--10-----10------------8---8----------10------------3--2--
D|-------------10h12--10--12\10--8--8---8---10/12------12\10--8--5--3--
A|----------------------------------10--10-----------------------5--3--
E|----------------------------------8---8------------------------3--1--

Stave 2:

E|--6--8---3--1--6--1--
B|--6--8---3--1--6--1--
G|--7--8---3--2--7--2--
D|--8--8---3--3--8--3--
A|--8--10--5--3--8--3--
E|--6--8---3--1--6--1--

http://www.guitartabcreator.com
Guitar Tab Creator is intended to store guitar tab created through the tool. It currently does not support in-line text editing. Any text you place in here will be lost. If you need to comment on your tab, please use the "Tab Notes" section located below.