Sound will begin in 5 seconds

Doug Seven Scale (in D)

01234567891011121314151617181920212223
E
B
G
D
A
E
B
0 1 2 3 4 5 6 7 8 9 10 11 12 13 14 15 16 17 18 19 20 21 22 23
Song Science #1: How Pros Use 6 Chords to Write Hit Songs
(/) Slide Up  (\) Slide Down  (h) Hammer On  (p) Pull Off  (b) Bend (r) Release (v) Vibrato

Stave 1:

E|-----------------------------3--4--5--5--4--3-----------------------------------------------------
B|--------------------3--5--6--------------------6--5--3--------------------------------------------
G|-----------2--4--5--------------------------------------5--4--2-----------------------------------
D|-----3--5--------------------------------------------------------5--3h4---------------------------
A|--5----------------------------------------------------------------------5--3h5--3-----3-----3/5--
E|------------------------------------------------------------------------------------5-----5-------

Stave 2:

E|--------------------------------5--7--8--8--7--5--------------------------------
B|-----------------------5--6--8--------------------8--6--5-----------------------
G|-----------------5--7--------------------------------------7--5-----------------
D|--------5--6--7--------------------------------------------------7--6--5--------
A|--5--8--------------------------------------------------------------------8--5--
E|--------------------------------------------------------------------------------

Stave 3:

E|-----------------------------------------------8--10--
B|-------------------------------------8--9--10---------
G|---------------------------7--9--10-------------------
D|-----------------7--9--10-----------------------------
A|------8--10--11---------------------------------------
E|--10--------------------------------------------------

Stave 4:

E|--10--8----------------------------------------------------------------
B|---------10--9--8------------------------------------------------------
G|-------------------10--9--7--------------------------------------------
D|-----------------------------10--9--7----------------------------------
A|---------------------------------------11--10--8------10------8h9------
E|--------------------------------------------------10------10-------10--

http://www.guitartabcreator.com
Guitar Tab Creator is intended to store guitar tab created through the tool. It currently does not support in-line text editing. Any text you place in here will be lost. If you need to comment on your tab, please use the "Tab Notes" section located below.