Sound will begin in 5 seconds

China Grove Solo

01234567891011121314151617181920212223
E
B
G
D
A
E
B
0 1 2 3 4 5 6 7 8 9 10 11 12 13 14 15 16 17 18 19 20 21 22 23
Song Science #1: How Pros Use 6 Chords to Write Hit Songs
(/) Slide Up  (\) Slide Down  (h) Hammer On  (p) Pull Off  (b) Bend (r) Release (v) Vibrato

Stave 1:

E|---------------------------------------------------------------------------------------------------
B|---------------------------------------------------------------------------------------------------
G|-----------9--------------------9--9------11---------9--11b13--11b13--11b13r9v--9b14r9------9------
D|--------9-----------------9h11--------11------9--11-------------------------------------11-----11--
A|--9h11---------------------------------------------------------------------------------------------
E|---------------------------------------------------------------------------------------------------

Stave 2:

E|---------------------------------------12---------12----------------------------------------12-------
B|--12b14--12b14--------------------------------------------------------------------------12------15v--
G|----------------11b12p9------9--11b13------11b13------11b12r9------9--11b13--11--11/13---------------
D|-------------------------11------------------------------------11------------------------------------
A|-----------------------------------------------------------------------------------------------------
E|-----------------------------------------------------------------------------------------------------

Stave 3:

E|-------12----------12-------15b17--15b17r16--15b17r16--15b17r16--12------12------------------
B|--15v------12--15------12v-------------------------------------------15------15b17v--15b17v--
G|---------------------------------------------------------------------------------------------
D|---------------------------------------------------------------------------------------------
A|---------------------------------------------------------------------------------------------
E|---------------------------------------------------------------------------------------------

Stave 4:

E|---------------------------------------12---------------------------------
B|--15--12--15b16r14--12-------------12------15--12-------------------------
G|------------------------14--12h13------------------14b16r14--14--12v------
D|----------------------------------------------------------------------14--
A|--------------------------------------------------------------------------
E|--------------------------------------------------------------------------

http://www.guitartabcreator.com
Guitar Tab Creator is intended to store guitar tab created through the tool. It currently does not support in-line text editing. Any text you place in here will be lost. If you need to comment on your tab, please use the "Tab Notes" section located below.