Sound will begin in 5 seconds

We Will

Chords
01234567891011121314151617181920212223
E
B
G
D
A
E
B
0 1 2 3 4 5 6 7 8 9 10 11 12 13 14 15 16 17 18 19 20 21 22 23
Song Science #1: How Pros Use 6 Chords to Write Hit Songs
(/) Slide Up  (\) Slide Down  (h) Hammer On  (p) Pull Off  (b) Bend (r) Release (v) Vibrato

Stave 1:

E|---------------------------------------------------------------------------------------
B|-----------------12--10------10v---------12--10------10v---------10h12--10--8----------
G|------12-----------------12----------------------12----------12----------------9--12v--
D|--12---------12----------------------12------------------------------------------------
A|---------------------------------------------------------------------------------------
E|---------------------------------------------------------------------------------------

Stave 2:

E|---------------------------------------------------------------------------------------------
B|-----3----------3-----------3----------3-----------3----------3--------3---------------------
G|--------0h2--0-----0-----------0h2--0-----0-----------0h2--0-----0--------4\2--2----------2--
D|--0----------------------0----------------------0------------------------------------0h2-----
A|---------------------------------------------------------------------------------------------
E|---------------------------------------------------------------------------------------------

Stave 3:

E|---------------------------------------------------------------------------------
B|-----7--7h8--7--------7-8--8--7-----7-8--7-----10/12--10--12--12v-----10h12--10--
G|--7-------------7-----7----7--7-----7h9--7---------------------------------------
D|----------------------7h9--9--7--------------------------------------------------
A|---------------------------------------------------------------------------------
E|---------------------------------------------------------------------------------

Stave 4:

E|--5----5-----------------
B|--5h7--5-----5----5------
G|-------------4h6--4--2v--
D|-------------------------
A|-------------------------
E|-------------------------

http://www.guitartabcreator.com
Guitar Tab Creator is intended to store guitar tab created through the tool. It currently does not support in-line text editing. Any text you place in here will be lost. If you need to comment on your tab, please use the "Tab Notes" section located below.