Sound will begin in 5 seconds

Washed by the Water - Solo

01234567891011121314151617181920212223
E
B
G
D
A
E
B
0 1 2 3 4 5 6 7 8 9 10 11 12 13 14 15 16 17 18 19 20 21 22 23
Song Science #1: How Pros Use 6 Chords to Write Hit Songs
(/) Slide Up  (\) Slide Down  (h) Hammer On  (p) Pull Off  (b) Bend (r) Release (v) Vibrato

Stave 1:

E|-----------------------------------------------------------------------------------
B|----------------------------------------------------------------4--7---------------
G|--6b8-----8r6p4--6v--------------4-----6b8r6--4-----4v-----6b8--------6b8r6--4-----
D|------------------------4--4--6------------------6------------------------------6--
A|-----------------------------------------------------------------------------------
E|-----------------------------------------------------------------------------------

Stave 2:

E|-----------------------------------------------------------
B|-------7-----7v-----7h9p7--9--7-----7-----9h11p9--11--12v--
G|--6/8-----8----------------------8-------------------------
D|-----------------------------------------------------------
A|-----------------------------------------------------------
E|-----------------------------------------------------------

Stave 3:

E|-----------------------------------------------------------------------------------------
B|--12v-----12--11----------------------------------------------------------------------9--
G|------------------13--11--13--11v-----13--11--11b13r11--9v-----------9--11--9--11b13-----
D|---------------------------------------------------------------9/11----------------------
A|-----------------------------------------------------------------------------------------
E|-----------------------------------------------------------------------------------------

Stave 4:

E|------------------------11-----------------9h11p9--11--9----------------------
B|---------9--12--12v---------12--14--12--------------------12--11--9--11--12v--
G|--11b13-----------------------------------------------------------------------
D|------------------------------------------------------------------------------
A|------------------------------------------------------------------------------
E|------------------------------------------------------------------------------

http://www.guitartabcreator.com
Guitar Tab Creator is intended to store guitar tab created through the tool. It currently does not support in-line text editing. Any text you place in here will be lost. If you need to comment on your tab, please use the "Tab Notes" section located below.