Sound will begin in 5 seconds

Trust in Jesus Solo

01234567891011121314151617181920212223
E
B
G
D
A
E
B
0 1 2 3 4 5 6 7 8 9 10 11 12 13 14 15 16 17 18 19 20 21 22 23
Song Science #1: How Pros Use 6 Chords to Write Hit Songs
(/) Slide Up  (\) Slide Down  (h) Hammer On  (p) Pull Off  (b) Bend (r) Release (v) Vibrato

Stave 1:

E|----------------------------------------------------------
B|--8/10v------10\3/5v--------------------7/8---------------
G|--------------------------2--5--7v-----------10--9--7--5--
D|----------------------------------------------------------
A|----------------------------------------------------------
E|----------------------------------------------------------

Stave 2:

E|---------------------------------------------------10----10--10/12\5----
B|--5/10v------10\9/10--10/13----13--13--13\12/13-------------------------
G|------------------------------------------------------------------------
D|------------------------------------------------------------------------
A|------------------------------------------------------------------------
E|------------------------------------------------------------------------

Stave 3:

E|----5\4/5----5\4/5------5--
B|------------------------5--
G|---------------------------
D|---------------------------
A|---------------------------
E|---------------------------

Stave 4:

E|--
B|--
G|--
D|--
A|--
E|--

http://www.guitartabcreator.com
Guitar Tab Creator is intended to store guitar tab created through the tool. It currently does not support in-line text editing. Any text you place in here will be lost. If you need to comment on your tab, please use the "Tab Notes" section located below.