Sound will begin in 5 seconds

Revelation Song

01234567891011121314151617181920212223
E
B
G
D
A
E
B
0 1 2 3 4 5 6 7 8 9 10 11 12 13 14 15 16 17 18 19 20 21 22 23
Song Science #1: How Pros Use 6 Chords to Write Hit Songs
(/) Slide Up  (\) Slide Down  (h) Hammer On  (p) Pull Off  (b) Bend (r) Release (v) Vibrato

Stave 1:

E|--7--------7--------7--------7--------7----10----------10----------10----------10----------10--
B|-----9--------9--------9--------9--------------12----------12----------12----------12----------
G|--------9--------9--------9--------9---------------11----------11----------11----------11------
D|-----------------------------------------------------------------------------------------------
A|-----------------------------------------------------------------------------------------------
E|-----------------------------------------------------------------------------------------------

Stave 2:

E|--10----------10----------10----------10----------10----9---------9---------9---------9---------9--
B|------10----------10----------10----------10---------------10--------10--------10--------10--------
G|----------11----------11----------11----------11---------------9---------9---------9---------9-----
D|---------------------------------------------------------------------------------------------------
A|---------------------------------------------------------------------------------------------------
E|---------------------------------------------------------------------------------------------------

Stave 3:

E|----12--12v--------------------------------------10h12--12--12--12v--10h12--12--12--12v--
B|---------------12v--10--12v--10h12--10--12-----------------------------------------------
G|--------------------------------------------11v------------------------------------------
D|-----------------------------------------------------------------------------------------
A|-----------------------------------------------------------------------------------------
E|-----------------------------------------------------------------------------------------

Stave 4:

E|-------------7v--------------------
B|-------5--7--------10------10--9v--
G|--5/6------------------11----------
D|-----------------------------------
A|-----------------------------------
E|-----------------------------------

http://www.guitartabcreator.com
Guitar Tab Creator is intended to store guitar tab created through the tool. It currently does not support in-line text editing. Any text you place in here will be lost. If you need to comment on your tab, please use the "Tab Notes" section located below.