Sound will begin in 5 seconds

Pour Out My Heart Solo

01234567891011121314151617181920212223
E
B
G
D
A
E
B
0 1 2 3 4 5 6 7 8 9 10 11 12 13 14 15 16 17 18 19 20 21 22 23
Song Science #1: How Pros Use 6 Chords to Write Hit Songs
(/) Slide Up  (\) Slide Down  (h) Hammer On  (p) Pull Off  (b) Bend (r) Release (v) Vibrato

Stave 1:

E|---------------------------------------------------------
B|---------------------------------------------------------
G|--12h14v----14--12--14b16--16r14--12----14b16r14p12------
D|-----------------------------------------------------14--
A|---------------------------------------------------------
E|---------------------------------------------------------

Stave 2:

E|---------------------------------------------------------------------
B|---------12--15---------12--15/17----15h17p15------------------------
G|--14b16----------14b16-------------------------16--14h16p14--12------
D|-----------------------------------------------------------------14--
A|---------------------------------------------------------------------
E|---------------------------------------------------------------------

Stave 3:

E|-----------------------------------------------10v----10h12p10--12v--
B|------------8v--10b12--8--------10/12--10--12------------------------
G|-----7h9p7----------------9v-----------------------------------------
D|--9------------------------------------------------------------------
A|---------------------------------------------------------------------
E|---------------------------------------------------------------------

Stave 4:

E|---------15------15--17--15--12-----------------------------------------------------
B|--15/17------17---------------------------------------------------------------------
G|-----------------------------------14b16r14--12--------------------------------12v--
D|-------------------------------------------------14---------------------12h14-------
A|--------------------------------------------------------------10h12/14--------------
E|-------------------------------------------------------10h12------------------------

http://www.guitartabcreator.com
Guitar Tab Creator is intended to store guitar tab created through the tool. It currently does not support in-line text editing. Any text you place in here will be lost. If you need to comment on your tab, please use the "Tab Notes" section located below.