Sound will begin in 5 seconds

Oceans

01234567891011121314151617181920212223
E
B
G
D
A
E
B
0 1 2 3 4 5 6 7 8 9 10 11 12 13 14 15 16 17 18 19 20 21 22 23
Song Science #1: How Pros Use 6 Chords to Write Hit Songs
(/) Slide Up  (\) Slide Down  (h) Hammer On  (p) Pull Off  (b) Bend (r) Release (v) Vibrato

Stave 1:

E|-----------------------------------------------------------------------------------------------
B|--------3-----------3-----------3-----------2-----------3-----------3-----------3-----------3--
G|-----4-----------4-----------4-----------2-----------2-----------2-----------2-----------2-----
D|--4-----------4-----------4-----------2-----------0-----------0-----------0-----------0--------
A|-----------------------------------------------------------------------------------------------
E|-----------------------------------------------------------------------------------------------

Stave 2:

E|-----------------------------------------------------------------------------------------------
B|--------5-----------5-----------5-----------5-----------8-----------8-----------8-----------8--
G|-----6-----------6-----------6-----------6-----------7-----------7-----------7-----------7-----
D|--7-----------7-----------7-----------7-----------5-----------5-----------5-----------5--------
A|-----------------------------------------------------------------------------------------------
E|-----------------------------------------------------------------------------------------------

Stave 3:

E|--------7-----------7-------------14--------------14------
B|-----8-----8-----8-----8------15------15------15------15--
G|--7-----------7-----------14--------------14--------------
D|----------------------------------------------------------
A|----------------------------------------------------------
E|----------------------------------------------------------

Stave 4:

E|---------9-------------9-------------9-------------10------
B|-----10-----10-----10-----10-----10-----10-----10------10--
G|--9-------------9-------------9-------------9--------------
D|-----------------------------------------------------------
A|-----------------------------------------------------------
E|-----------------------------------------------------------

Stave 5:

E|--------------0--------------------0-----------
B|--------7--------7-----------7--------7--------
G|-----7-----7--------------7-----7--------7-----
D|--9--------------------9-----------------------
A|-----------------------------------------------
E|-----------------------------------------------

Stave 6:

E|--------------0--------------------0--------
B|--------7--------7-----------7--------7-----
G|-----7-----7--------------7-----7--------7--
D|--7--------------------7--------------------
A|--------------------------------------------
E|--------------------------------------------

Stave 7:

E|--------------0--------------------0--------
B|--------5--------5-----------5--------5-----
G|-----6-----6--------------6-----6--------6--
D|--7--------------------7--------------------
A|--------------------------------------------
E|--------------------------------------------

Stave 8:

E|--------------0--------------------0--------
B|--------8--------8-----------8--------8-----
G|-----7-----7--------------7-----7--------7--
D|--5--------------------5--------------------
A|--------------------------------------------
E|--------------------------------------------

http://www.guitartabcreator.com
Guitar Tab Creator is intended to store guitar tab created through the tool. It currently does not support in-line text editing. Any text you place in here will be lost. If you need to comment on your tab, please use the "Tab Notes" section located below.