Sound will begin in 5 seconds

O Come to the Altar

Chords
01234567891011121314151617181920212223
E
B
G
D
A
E
B
0 1 2 3 4 5 6 7 8 9 10 11 12 13 14 15 16 17 18 19 20 21 22 23
(/) Slide Up  (\) Slide Down  (h) Hammer On  (p) Pull Off  (b) Bend (r) Release (v) Vibrato

Stave 1:

E|-----5-----------------5-----------------5-----------------5--------------5--
B|--------5-----------------5-----------------5-----------------5-----------5--
G|--6--------6-----6--7--------7-----7--6--------6-----6--7--------7-----7--6--
D|-----------------------------------------------------------------------------
A|-----------------------------------------------------------------------------
E|-----------------------------------------------------------------------------

Stave 2:

E|-----------------------------------------------------------
B|-----------------------------------------------------------
G|-----------------------------------------------------------
D|--6--7--7--7--------6--7--7--7--------4-----2--6--7--7--7--
A|-----------------------------------------------------------
E|-----------------------------------------------------------

Stave 3:

E|----------------------------------------------------------------
B|----------------------------------------------------------------
G|--2h4--------------2h4--------------2h4--------2-----4/6-----4--
D|----------------4----------------4------------------------------
A|----------------------------------------------------------------
E|----------------------------------------------------------------

Stave 4:

E|--------------------------------------
B|-----------------------------3-----3--
G|--2--2--2-----------------------------
D|-----------6-----------2--4-----4-----
A|--------------7-----------------------
E|--------------------------------------

http://www.guitartabcreator.com
Guitar Tab Creator is intended to store guitar tab created through the tool. It currently does not support in-line text editing. Any text you place in here will be lost. If you need to comment on your tab, please use the "Tab Notes" section located below.