Sound will begin in 5 seconds

Love the Lord - Solo

Chords
01234567891011121314151617181920212223
E
B
G
D
A
E
B
0 1 2 3 4 5 6 7 8 9 10 11 12 13 14 15 16 17 18 19 20 21 22 23
Song Science #1: How Pros Use 6 Chords to Write Hit Songs
(/) Slide Up  (\) Slide Down  (h) Hammer On  (p) Pull Off  (b) Bend (r) Release (v) Vibrato

Stave 1:

E|--_-------------------------------------------------------------------------
B|--12--12--12--12--10--8--8--8--8-10--------12--12--12--12--10--8--8--10--10--
G|--12--12--12--12--11--9--9--9--9/11--------12--12--12--12--11--9--9--11--11--
D|--_-------------------------------------------------------------------------
A|--_-------------------------------------------------------------------------
E|--_-------------------------------------------------------------------------

Stave 2:

E|-----------------------------------------------------------------------------------
B|-----12--12--12--12--10--8--8--8--8-10--------12h13--12--13p12------12h13--12--15--
G|-----12--12--12--12--11--9--9--9--9/11--------12-----12---------12--12-----12--12--
D|-----------------------------------------------------------------------------------
A|-----------------------------------------------------------------------------------
E|-----------------------------------------------------------------------------------

Stave 3:

E|--_-----------------------------------------------
B|--12--12--12--12-----10-----12-----12--12--12--12--
G|--12--12--12--12-----11-----12-----12--12--12--12--
D|--_-----------------------------------------------
A|--_-----------------------------------------------
E|--_-----------------------------------------------

Stave 4:

E|---------------------------------------------------------------------------------------------------
B|--15b17-----12v------------------------------------------------------------------------------------
G|--------------------11h12p11--12/14-----12--------------------12--14--14/16-----14--12--11--12/14--
D|--------------------------------------------14--12h14v---------------------------------------------
A|---------------------------------------------------------------------------------------------------
E|---------------------------------------------------------------------------------------------------

Stave 5:

E|---------------------------------------------------------------------------------------
B|---------15--15---------15--------------------------------------------15------15--17v--
G|--14b16----------14b16------16r14--12------14--12------12v-----14/16------16-----------
D|---------------------------------------14----------14----------------------------------
A|---------------------------------------------------------------------------------------
E|---------------------------------------------------------------------------------------

Stave 6:

E|-----------------------------
B|--15h17p15--17v-----19--20v--
G|-----------------------------
D|-----------------------------
A|-----------------------------
E|-----------------------------

http://www.guitartabcreator.com
Guitar Tab Creator is intended to store guitar tab created through the tool. It currently does not support in-line text editing. Any text you place in here will be lost. If you need to comment on your tab, please use the "Tab Notes" section located below.