Sound will begin in 5 seconds

Jesus Take the Wheel

01234567891011121314151617181920212223
E
B
G
D
A
E
B
0 1 2 3 4 5 6 7 8 9 10 11 12 13 14 15 16 17 18 19 20 21 22 23
Song Science #1: How Pros Use 6 Chords to Write Hit Songs
(/) Slide Up  (\) Slide Down  (h) Hammer On  (p) Pull Off  (b) Bend (r) Release (v) Vibrato

Stave 1:

E|------------------------------------
B|------------------------------------
G|--7h9--9/11-----9--------6h7--7--6--
D|------------------------------------
A|------------------------------------
E|------------------------------------

Stave 2:

E|-----------------------------------------------------------------------------------------
B|-----------------------------------------------------------------------------------------
G|---------------------------------------------------2v-------------------7--9v-----9--11--
D|---------------------------------------------2--4------------2/7--7--9-------------------
A|-----0-----0-----0--0--0-----2--4--7v-----5----------------------------------------------
E|--12\------------------------------------------------------------------------------------

Stave 3:

E|---------------------------------------------------
B|--10---------10---------10---------10---------10v--
G|------11--9------11--9------11--9------11--9-------
D|---------------------------------------------------
A|---------------------------------------------------
E|---------------------------------------------------

Stave 4:

E|-----------------------------------------------------------------------------------------
B|--10/12--10--------10------10--12--10/12-----10-----10------10--12--12b14--12b14--12b14--
G|-----------------------11-------------------------------11-------------------------------
D|-----------------------------------------------------------------------------------------
A|-----------------------------------------------------------------------------------------
E|-----------------------------------------------------------------------------------------

Stave 5:

E|----------------------------------------------------12-------------------------------------------------
B|--12b14r12p10--12v--------------10------10--12--10------10v--10-----------------------------------10v--
G|--------------------------9/11------11---------------------------11--9--7--6h7v--------/9v-----9-------
D|-------------------------------------------------------------------------------------------------------
A|-------------------------------------------------------------------------------------------------------
E|-------------------------------------------------------------------------------------------------------

http://www.guitartabcreator.com
Guitar Tab Creator is intended to store guitar tab created through the tool. It currently does not support in-line text editing. Any text you place in here will be lost. If you need to comment on your tab, please use the "Tab Notes" section located below.