Sound will begin in 5 seconds

Jesus is Just All Right - Solo

Chords
01234567891011121314151617181920212223
E
B
G
D
A
E
B
0 1 2 3 4 5 6 7 8 9 10 11 12 13 14 15 16 17 18 19 20 21 22 23
Song Science #1: How Pros Use 6 Chords to Write Hit Songs
(/) Slide Up  (\) Slide Down  (h) Hammer On  (p) Pull Off  (b) Bend (r) Release (v) Vibrato

Stave 1:

E|-----------------------------------------------------------------------------------------------------
B|--13--15b17-----13h15p13------13v--------------8--7--5-----------------------------------------------
G|--------------------------14----------14\---------------7--5-----7--5--------------------------------
D|--------------------------------------------------------------7--------7--5---------------------5h7--
A|-----------------------------------------------------------------------------7--6--5\3-----5/7-------
E|----------------------------------------------------------------------------------------5------------

Stave 2:

E|------------------------------------------------------------------------------------------------------
B|------------------------------------------------------------------------------------------------------
G|--7b9r7--5-----5--7v--------5--7b9--------7b9r7p5--7v-------------5v-----------5--7--7/9--9--7--5/7v--
D|------------7---------------------------------------------7p5--7--------------------------------------
A|------------------------------------------------------------------------------------------------------
E|------------------------------------------------------------------------------------------------------

Stave 3:

E|--8---8------10--10----------------------------------------------------------------------
B|--11--11-----13--13-----15b17-----15b17--15b17-----15b17r15p13--15v-----13------13--15v--
G|----------------------------------------------------------------------------14-----------
D|-----------------------------------------------------------------------------------------
A|-----------------------------------------------------------------------------------------
E|-----------------------------------------------------------------------------------------

Stave 4:

E|-----------------------------------------------------------------------------------------
B|------13h15p13------13h15p13------13h15p13------13h15p13---------13h15p13------13h15p13--
G|--14------------14------------14------------14---------------14------------14------------
D|-----------------------------------------------------------------------------------------
A|-----------------------------------------------------------------------------------------
E|-----------------------------------------------------------------------------------------

Stave 5:

E|-----------------------------------------------------------------------------------------------
B|--13--13--13\12-----12--12--12\10-----10--10--10\8--8--7--5------------------------------------
G|-------------------------------------------------------------7p5-----5--7--7b9r7--5-----5--7v--
D|------------------------------------------------------------------7------------------7---------
A|-----------------------------------------------------------------------------------------------
E|-----------------------------------------------------------------------------------------------

Stave 6:

E|-------------------------------
B|-------------------------------
G|--------5--7--7b9r7--5-----5v--
D|--5--7------------------7------
A|-------------------------------
E|-------------------------------

Stave 7:

E|-----------------------------------------------------------------------------------------------
B|--------------------------5-------------------------10--13--10--10v--13--15b17r15p13--15--13v--
G|--------------------5--------7b9r7--5v--------8/11---------------------------------------------
D|-----------5--6--7-----7-----------------------------------------------------------------------
A|--5--6--7--------------------------------------------------------------------------------------
E|-----------------------------------------------------------------------------------------------

Stave 8:

E|-------------------------------------------------10-----------
B|------10--12--12b13--12b13--13r12p10------12b14------12--10v--
G|--11----------------------------------11----------------------
D|--------------------------------------------------------------
A|--------------------------------------------------------------
E|--------------------------------------------------------------

Stave 9:

E|--------------------------------------------------------------15--17--15b16--15b16--15--
B|------13--15--15b17--15--13------15--15b17r15--13v--------17----------------------------
G|--14-------------------------14---------------------------------------------------------
D|----------------------------------------------------------------------------------------
A|----------------------------------------------------------------------------------------
E|----------------------------------------------------------------------------------------

Stave 10:

E|--17--15--17--15--17--17v--
B|---------------------------
G|---------------------------
D|---------------------------
A|---------------------------
E|---------------------------

http://www.guitartabcreator.com
Guitar Tab Creator is intended to store guitar tab created through the tool. It currently does not support in-line text editing. Any text you place in here will be lost. If you need to comment on your tab, please use the "Tab Notes" section located below.