Sound will begin in 5 seconds

From the Inside Out

01234567891011121314151617181920212223
E
B
G
D
A
E
B
0 1 2 3 4 5 6 7 8 9 10 11 12 13 14 15 16 17 18 19 20 21 22 23
Song Science #1: How Pros Use 6 Chords to Write Hit Songs
(/) Slide Up  (\) Slide Down  (h) Hammer On  (p) Pull Off  (b) Bend (r) Release (v) Vibrato

null

E|------------------------12-------------12------------------
B|---------13------------------------13------13--15--12------
G|--12h14------14--12h14---------12----------------------12--
D|-----------------------------------------------------------
A|-----------------------------------------------------------
E|-----------------------------------------------------------

null

E|-------------------------------------------------------
B|--------5-----6--------6--5--------5--3-------------3--
G|-----5-----5-----5-----------5-----------4-----4h5-----
D|--7-----------------7-----------5-----------5----------
A|-------------------------------------------------------
E|-------------------------------------------------------

Stave 3:

E|--------------------------------------------------------------
B|--8/10--10--10--10--10--10--10--10--8--8--8--8\3--3--3--3--3--
G|--------------------------------------------------------------
D|--------------------------------------------------------------
A|--------------------------------------------------------------
E|--------------------------------------------------------------

Stave 4:

E|------------------------------------------------------
B|--10--10--10--10--6--6--6--6--8--8--8--8--3--3--3--3--
G|------------------------------------------------------
D|------------------------------------------------------
A|------------------------------------------------------
E|------------------------------------------------------

Stave 5:

E|---------------------------------------------------------
B|--10--10--10--10--6--6--6--6--8--8--8--8--3--3--3--3--6--
G|---------------------------------------------------------
D|---------------------------------------------------------
A|---------------------------------------------------------
E|---------------------------------------------------------

Stave 6:

E|-------8--8--8-------7--7--7-------8--8--8-------5--5--5--
B|--6/8-----------6/8-----------6/8-----------3/5-----------
G|----------------------------------------------------------
D|----------------------------------------------------------
A|----------------------------------------------------------
E|----------------------------------------------------------

Stave 7:

E|--------------------------------------------------
B|--------6-----8--------8--------6-----8--------8--
G|-----5-----5-----5-----------5-----5-----5--------
D|--7-----------------5-----7-----------------5-----
A|--------------------------------------------------
E|--------------------------------------------------

http://www.guitartabcreator.com
Guitar Tab Creator is intended to store guitar tab created through the tool. It currently does not support in-line text editing. Any text you place in here will be lost. If you need to comment on your tab, please use the "Tab Notes" section located below.