Sound will begin in 5 seconds

If I Can Dream Solo

01234567891011121314151617181920212223
E
B
G
D
A
E
B
0 1 2 3 4 5 6 7 8 9 10 11 12 13 14 15 16 17 18 19 20 21 22 23
Song Science #1: How Pros Use 6 Chords to Write Hit Songs
(/) Slide Up  (\) Slide Down  (h) Hammer On  (p) Pull Off  (b) Bend (r) Release (v) Vibrato

Stave 1:

E|-------------------------------------------------------------
B|---------13--15--15v----13h15--13--15b16r15p13--15--13-------
G|--11/14-------------------------------------------------14v--
D|-------------------------------------------------------------
A|-------------------------------------------------------------
E|-------------------------------------------------------------

Stave 2:

E|-----------------------------------------------------------------------
B|--15--13------13v----13------13--15v----13h15--13---------13--15-------
G|----------14-------------14------------------------14/15----------12v--
D|-----------------------------------------------------------------------
A|-----------------------------------------------------------------------
E|-----------------------------------------------------------------------

Stave 3:

E|--15--13--12--13v----12h13--12--13/15--13-------
B|-------------------------------------------15v--
G|------------------------------------------------
D|------------------------------------------------
A|------------------------------------------------
E|------------------------------------------------

Stave 4:

E|----------------------------------------------------------------
B|----------------------------------------------------------------
G|--13\12p10------10--12v----10h12--10--12b13r12p10--12--10-------
D|------------12---------------------------------------------12v--
A|----------------------------------------------------------------
E|----------------------------------------------------------------

Stave 5:

E|--------------------------------------------
B|---------10--11--13v-----------10--11--13v--
G|--12b14-----------------12b14---------------
D|--------------------------------------------
A|--------------------------------------------
E|--------------------------------------------

Stave 6:

E|--------------------------------------------------------
B|---------13--15------13--15v----13h15--13------15--13v--
G|--10/14----------14------------------------14-----------
D|--------------------------------------------------------
A|--------------------------------------------------------
E|--------------------------------------------------------

Stave 7:

E|---------------------------------------------------------------------------------------------------------
B|--13--15--15--15v----13--15--15--15--15--15--17v----17--17v----17--17--17--17--18v--18--18--18--18--20v--
G|---------------------------------------------------------------------------------------------------------
D|---------------------------------------------------------------------------------------------------------
A|---------------------------------------------------------------------------------------------------------
E|---------------------------------------------------------------------------------------------------------

http://www.guitartabcreator.com
Guitar Tab Creator is intended to store guitar tab created through the tool. It currently does not support in-line text editing. Any text you place in here will be lost. If you need to comment on your tab, please use the "Tab Notes" section located below.