Sound will begin in 5 seconds

I Have Decided (Solo)

Chords
01234567891011121314151617181920212223
E
B
G
D
A
E
B
0 1 2 3 4 5 6 7 8 9 10 11 12 13 14 15 16 17 18 19 20 21 22 23
Song Science #1: How Pros Use 6 Chords to Write Hit Songs
(/) Slide Up  (\) Slide Down  (h) Hammer On  (p) Pull Off  (b) Bend (r) Release (v) Vibrato

Stave 1:

E|--------------------------------------------------------------------------------------------
B|-------------------------------------------------------------------------------5/8--8--10v--
G|--7h8p7--8--7--5-----------5\2--2-----2v-----------5--7--7b9r7p5--7v-----5--7---------------
D|------------------7--5-------------5---------5--7-------------------------------------------
A|--------------------------------------------------------------------------------------------
E|--------------------------------------------------------------------------------------------

Stave 2:

E|--4-5--5--5--5--------8---8------7-----------4-5--5--5--5-----8---8------7--
B|--4/5--5--5--5--------10--10-----8-----------4-5--5--5--5-----10--10-----8--
G|--4-5--5--5--5--------9---9------7-----------4/5--5--5--5-----9---9------7--
D|----------------------------------------------------------------------------
A|----------------------------------------------------------------------------
E|----------------------------------------------------------------------------

Stave 3:

E|-----10p8------8--------------------------------------------
B|-----------10-----10p8-----8--10--10v-----8-----------------
G|------------------------9--------------------9--7\5--5------
D|--------------------------------------------------------7v--
A|------------------------------------------------------------
E|------------------------------------------------------------

Stave 4:

E|----------------------------------------------------------10--9--8-------
B|--------------------------------------------------------------------10v--
G|--7h8p7--------5-----------------5h7p5-----------------------------------
D|------------------7v--------5h7---------7p5-----5--7v--------------------
A|---------------------------------------------7---------------------------
E|-------------------------------------------------------------------------

http://www.guitartabcreator.com
Guitar Tab Creator is intended to store guitar tab created through the tool. It currently does not support in-line text editing. Any text you place in here will be lost. If you need to comment on your tab, please use the "Tab Notes" section located below.