Sound will begin in 5 seconds

Humble And Kind

Chords
01234567891011121314151617181920212223
E
B
G
D
A
E
B
0 1 2 3 4 5 6 7 8 9 10 11 12 13 14 15 16 17 18 19 20 21 22 23
Song Science #1: How Pros Use 6 Chords to Write Hit Songs
(/) Slide Up  (\) Slide Down  (h) Hammer On  (p) Pull Off  (b) Bend (r) Release (v) Vibrato

Stave 1:

E|---------------------------------------------------------------------
B|----------5---------------------------------5------------------------
G|--4h6-----------6--4h6--------6--4h6-----------6--4/6-----6----------
D|-------------------------------------------------------------9--6/7--
A|---------------------------------------------------------------------
E|---------------------------------------------------------------------

Stave 2:

E|-----------------------------------------------
B|-----------------------------------------------
G|-----------------------------------------------
D|-----------------------------------------------
A|-----4--4--4--4-----4--4--4--------4--4--4--4--
E|--5--------------------------5-----------------

Stave 3:

E|-----------------------------------------------
B|-----------------------------------------------
G|-----------------------------------------------
D|-----------------------------------------------
A|-----4--4--4--4-----4--4--4--------4--4--4--4--
E|--2--------------------------2-----------------

Stave 4:

E|-----------------------------------------------------------0----------------
B|-----------------------------------------------------------2-----2----------
G|-----------------------------------------------------------2--------2-------
D|-----------------------------------------------------------2-----------0h2--
A|------12--12--12--12-----12--12--12---------12--12--12-----0----------------
E|--10---------------------------------10-------------------------------------

Stave 5:

E|-------------------------------------------------------------------------------------------
B|-------------------------------------------------------------------------------------------
G|--6--7/9-----9-----9v-----7--6h7--6--------7/9--------9/11-----9v-----9--7--6--7--6h7------
D|---------------------------------------------------------------------------------------4v--
A|-------------------------------------------------------------------------------------------
E|-------------------------------------------------------------------------------------------

Stave 6:

E|---------------------------------
B|---------------------------------
G|--7--6h7-------------------4/6v--
D|----------4--------2/4--2--------
A|---------------------------------
E|---------------------------------

http://www.guitartabcreator.com
Guitar Tab Creator is intended to store guitar tab created through the tool. It currently does not support in-line text editing. Any text you place in here will be lost. If you need to comment on your tab, please use the "Tab Notes" section located below.