Sound will begin in 5 seconds

Have Yourself A Merry Christmas - Solo

01234567891011121314151617181920212223
E
B
G
D
A
E
B
0 1 2 3 4 5 6 7 8 9 10 11 12 13 14 15 16 17 18 19 20 21 22 23
Song Science #1: How Pros Use 6 Chords to Write Hit Songs
(/) Slide Up  (\) Slide Down  (h) Hammer On  (p) Pull Off  (b) Bend (r) Release (v) Vibrato

Stave 1:

E|-------------13--15v-----15/17--15--17v-----17--15---------------------------------
B|--11/13--15-----------------------------------------18--17p15----------------------
G|---------------------------------------------------------------17v-----10--12/14v--
D|-----------------------------------------------------------------------------------
A|-----------------------------------------------------------------------------------
E|-----------------------------------------------------------------------------------

Stave 2:

E|-----------------------------------------------------------------------------
B|-----------------------------------------------------------------------------
G|--14--12--10------------------10--12v-----12b14r12--10--12v-------------10v--
D|--------------12--10v-----12------------------------------------10--12-------
A|-----------------------------------------------------------------------------
E|-----------------------------------------------------------------------------

Stave 3:

E|------------------------------------------17--15----------------------------------
B|--------------------------------------------------18--17--15----------------------
G|--12/14-----14--14-----14--14--12--10-------------------------17v-----10--12/14v--
D|----------------------------------------------------------------------------------
A|----------------------------------------------------------------------------------
E|----------------------------------------------------------------------------------

Stave 4:

E|-----------------------------------------------------------------------------------
B|---------------------------------------------------10--11--13--13--13--13--13--13--
G|--14--12--10------------------10--12v--12--10--12----------------------------------
D|--------------12--10v-----12-------------------------------------------------------
A|-----------------------------------------------------------------------------------
E|-----------------------------------------------------------------------------------

Stave 5:

E|-----------------------------
B|--14--14--14--14--14--14--14\
G|-----------------------------
D|-----------------------------
A|-----------------------------
E|-----------------------------

http://www.guitartabcreator.com
Guitar Tab Creator is intended to store guitar tab created through the tool. It currently does not support in-line text editing. Any text you place in here will be lost. If you need to comment on your tab, please use the "Tab Notes" section located below.