Sound will begin in 5 seconds

Green Onions

Chords
01234567891011121314151617181920212223
E
B
G
D
A
E
B
0 1 2 3 4 5 6 7 8 9 10 11 12 13 14 15 16 17 18 19 20 21 22 23
Song Science #1: How Pros Use 6 Chords to Write Hit Songs
(/) Slide Up  (\) Slide Down  (h) Hammer On  (p) Pull Off  (b) Bend (r) Release (v) Vibrato

Stave 1:

E|------------------
B|--3-----8-----10--
G|--3-----8-----10--
D|--3-----8-----10--
A|------------------
E|------------------

Stave 2:

E|--------------------------------------------------------------------------------------
B|--------------------------------------------------------------------------------------
G|--------------------------------------------------------------------------------------
D|-----------------------------------------------------1-----------------------------3--
A|-----------------------1--------1-----1--1-----4--------------3-----3--3-----6--------
E|--1-----1--1-----4--------------------------------------------------------------------

Stave 3:

E|------------------1----------------------------------------4--6--7b8--4--------1-------------
B|------------------1------------------4--6--6--6v--------6----------------------1-------------
G|--3b5r3--1-----------3b5r3--1-----------------------------------------------------3b5--3--1--
D|---------------------------------------------------------------------------------------------
A|---------------------------------------------------------------------------------------------
E|---------------------------------------------------------------------------------------------

Stave 4:

E|--1--------------------------------------------------------------------------------------------------------
B|--1-------------------1--1--------------1--1--------------1-------1----------------------------------------
G|-----3b5--3--1--------1--1--------------1--1-----------------3b5-----3b5--------------1--------------------
D|----------------------------3--3--------------3--1------------------------------1--3--------------7--------
A|-----------------------------------------------------------------------------------------------8-----8--8--
E|-----------------------------------------------------------------------------------------------------------

Stave 5:

E|--1----------------------6--------------------8----------------
B|--1----------------------6--------------------8----------------
G|-----3b5--3--1--------------8b10--8--6-----------10b12--10--8--
D|---------------------------------------------------------------
A|---------------------------------------------------------------
E|---------------------------------------------------------------

http://www.guitartabcreator.com
Guitar Tab Creator is intended to store guitar tab created through the tool. It currently does not support in-line text editing. Any text you place in here will be lost. If you need to comment on your tab, please use the "Tab Notes" section located below.