Sound will begin in 5 seconds

Forever (by Kari Jobe)

01234567891011121314151617181920212223
E
B
G
D
A
E
B
0 1 2 3 4 5 6 7 8 9 10 11 12 13 14 15 16 17 18 19 20 21 22 23
Song Science #1: How Pros Use 6 Chords to Write Hit Songs
(/) Slide Up  (\) Slide Down  (h) Hammer On  (p) Pull Off  (b) Bend (r) Release (v) Vibrato

Stave 1:

E|---------------8-------------------------8------
B|--8--9v-----------8v--------8--9v-----------6v--
G|------------------------------------------------
D|------------------------------------------------
A|------------------------------------------------
E|------------------------------------------------

Stave 2:

E|---------------------------------------------------------------------------------------
B|--13------------16------------13------------14---------13------13------13------13------
G|------13------------15------------13------------13---------13------13------13------13--
D|---------------------------------------------------------------------------------------
A|---------------------------------------------------------------------------------------
E|---------------------------------------------------------------------------------------

Stave 3:

E|--------------------------------------------------------------------------------------------------
B|--16------16------16------16------13------13------13------13------14------14------14------14------
G|------15------15------15------15------13------13------13------13------13------13------13------13--
D|--------------------------------------------------------------------------------------------------
A|--------------------------------------------------------------------------------------------------
E|--------------------------------------------------------------------------------------------------

Stave 4:

E|---------------------------------------------------------------------
B|--13/14--14--14--13--13v-----13--13--13--11--11--11--11v-----11--13--
G|---------------------------------------------------------------------
D|---------------------------------------------------------------------
A|---------------------------------------------------------------------
E|---------------------------------------------------------------------

Stave 5:

E|--------------------------------------------
B|--9--11--13--13v-----13-----9--11--13--14v--
G|--------------------------------------------
D|--------------------------------------------
A|--------------------------------------------
E|--------------------------------------------

http://www.guitartabcreator.com
Guitar Tab Creator is intended to store guitar tab created through the tool. It currently does not support in-line text editing. Any text you place in here will be lost. If you need to comment on your tab, please use the "Tab Notes" section located below.