Sound will begin in 5 seconds

Flawless

01234567891011121314151617181920212223
E
B
G
D
A
E
B
0 1 2 3 4 5 6 7 8 9 10 11 12 13 14 15 16 17 18 19 20 21 22 23
Song Science #1: How Pros Use 6 Chords to Write Hit Songs
(/) Slide Up  (\) Slide Down  (h) Hammer On  (p) Pull Off  (b) Bend (r) Release (v) Vibrato

Stave 1:

E|-----------------------------------------------------------------------------------------------
B|--------2-----------2-----------2-----------2--------------------------------------------------
G|--2-----------2--2--------2-----------2--2--------------1-----------1-----------1-----------1--
D|--------------------------------------------------2-----------2--2--------2-----------2--2-----
A|-----------------------------------------------------------------------------------------------
E|-----------------------------------------------------------------------------------------------

Stave 2:

E|-----------------------------------------------------------------------------------------------
B|--------3-----------3-----------3-----------3-----------2-----------2-----------2-----------2--
G|--2-----------2--2--------2-----------2--2--------2-----------2--2--------2-----------2--2-----
D|-----------------------------------------------------------------------------------------------
A|-----------------------------------------------------------------------------------------------
E|-----------------------------------------------------------------------------------------------

Stave 3:

E|---------------------------------------------------------------------------------------------------
B|--------10-----------10-----------10-----------10-----------9-----------9-----------9-----------9--
G|--9------------9------------9------------9--9---------9-----------9-----------9-----------9--9-----
D|---------------------------------------------------------------------------------------------------
A|---------------------------------------------------------------------------------------------------
E|---------------------------------------------------------------------------------------------------

Stave 4:

E|---------------------------------------------------------------------------------------------
B|--------7-----------7-----------7-----------7-----------10--------10--------10-----------10--
G|--7-----------7-----------7-----------7--7--------9------------9---------9---------9--9------
D|---------------------------------------------------------------------------------------------
A|---------------------------------------------------------------------------------------------
E|---------------------------------------------------------------------------------------------

http://www.guitartabcreator.com
Guitar Tab Creator is intended to store guitar tab created through the tool. It currently does not support in-line text editing. Any text you place in here will be lost. If you need to comment on your tab, please use the "Tab Notes" section located below.