Sound will begin in 5 seconds

Everything That Has Breath Solo

Chords
01234567891011121314151617181920212223
E
B
G
D
A
E
B
0 1 2 3 4 5 6 7 8 9 10 11 12 13 14 15 16 17 18 19 20 21 22 23
Song Science #1: How Pros Use 6 Chords to Write Hit Songs
(/) Slide Up  (\) Slide Down  (h) Hammer On  (p) Pull Off  (b) Bend (r) Release (v) Vibrato

Stave 1:

E|----------------------------------------------
B|----------------------------------------------
G|---------14------14--16--16b17r16b17r16--14v--
D|--14/16------16-------------------------------
A|----------------------------------------------
E|----------------------------------------------

Stave 2:

E|--------------------------------------------------------
B|--------------------------------------------------------
G|----14b16r14--12------12--14----14--12--14/16--12-------
D|------------------14-------------------------------14v--
A|--------------------------------------------------------
E|--------------------------------------------------------

Stave 3:

E|----------------------------------------------------------
B|---------15--15---------15-----------15--17------15--17v--
G|--14b16----------14b16--------14/16----------16-----------
D|----------------------------------------------------------
A|----------------------------------------------------------
E|----------------------------------------------------------

Stave 4:

E|------------------------------------------------
B|--13--12----------------------------------------
G|----------14--12v-------------------------------
D|-------------------14--12--10--9--7--5v------0--
A|------------------------------------------------
E|---------------------------------------------3--

http://www.guitartabcreator.com
Guitar Tab Creator is intended to store guitar tab created through the tool. It currently does not support in-line text editing. Any text you place in here will be lost. If you need to comment on your tab, please use the "Tab Notes" section located below.