Sound will begin in 5 seconds

Courageous

01234567891011121314151617181920212223
E
B
G
D
A
E
B
0 1 2 3 4 5 6 7 8 9 10 11 12 13 14 15 16 17 18 19 20 21 22 23
Song Science #1: How Pros Use 6 Chords to Write Hit Songs
(/) Slide Up  (\) Slide Down  (h) Hammer On  (p) Pull Off  (b) Bend (r) Release (v) Vibrato

Stave 1:

E|------------------------------
B|----10-------------10---------
G|----9-------9------9-------9--
D|----7-------7------7-------9--
A|------------0--------------7--
E|------------------------------

Stave 2:

E|----------10--9v------------------------------10--9v--------
B|--10--12------------10--12--10--9v----10--12------------9v--
G|------------------------------------------------------------
D|------------------------------------------------------------
A|------------------------------------------------------------
E|------------------------------------------------------------

Stave 3:

E|-------------------------------------------------------
B|--10--10--9h10p9--10--10--9h10p9--10--10--9h10p9--10v--
G|-------------------------------------------------------
D|-------------------------------------------------------
A|-------------------------------------------------------
E|-------------------------------------------------------

Stave 4:

E|----------------------------------------------------------------
B|--15--15--15--15--15\14--14--14--14--14--14--14--14/12--12--12--
G|----------------------------------------------------------------
D|----------------------------------------------------------------
A|----------------------------------------------------------------
E|----------------------------------------------------------------

Stave 5:

E|-----------------------------------------------------------------
B|--15--15--15--15--15/14--14--14--14--14--14--14--14--14--14--14--
G|-----------------------------------------------------------------
D|-----------------------------------------------------------------
A|-----------------------------------------------------------------
E|-----------------------------------------------------------------

Stave 6:

E|----------------------------------------------------------------
B|--15--15--15--15--15/14--14--14--14--14--14--14--14/12--12--12--
G|----------------------------------------------------------------
D|----------------------------------------------------------------
A|----------------------------------------------------------------
E|----------------------------------------------------------------

Stave 7:

E|----
B|----
G|----
D|----
A|----
E|----

Stave 8:

E|--------------------------------------------------
B|--19--19--19--17--17v----17--17--14--14-----------
G|-----------------------------------------16--16v--
D|--------------------------------------------------
A|--------------------------------------------------
E|--------------------------------------------------

http://www.guitartabcreator.com
Guitar Tab Creator is intended to store guitar tab created through the tool. It currently does not support in-line text editing. Any text you place in here will be lost. If you need to comment on your tab, please use the "Tab Notes" section located below.