Sound will begin in 5 seconds

Amen

Chords
01234567891011121314151617181920212223
E
B
G
D
A
E
B
0 1 2 3 4 5 6 7 8 9 10 11 12 13 14 15 16 17 18 19 20 21 22 23
Song Science #1: How Pros Use 6 Chords to Write Hit Songs
(/) Slide Up  (\) Slide Down  (h) Hammer On  (p) Pull Off  (b) Bend (r) Release (v) Vibrato

Stave 1:

E|---------------------------------------------
B|------------14--13--------14--13--11--9------
G|--13-------------------------------------10--
D|---------------------------------------------
A|---------------------------------------------
E|---------------------------------------------

Stave 2:

E|----------------------------------------------
B|--8--------8--9--------------------------16v--
G|--8-----8-----10--------8---------13/15-------
D|--8-----------10--------8---------------------
A|------------------------10--------------------
E|----------------------------------------------

Stave 3:

E|--13--11--------------------------------------------------13--11----------------------------------
B|----------13v--------11h13v--------11h13--11----------------------13v------------16v-----13--16v--
G|----------------------------------------------13--10v---------------------13/15-------------------
D|--------------------------------------------------------------------------------------------------
A|--------------------------------------------------------------------------------------------------
E|--------------------------------------------------------------------------------------------------

Stave 4:

E|--13--11------------------------------------------------------------------------
B|----------13v--------11h13v--------11h13--11-----------------------14--13--11v--
G|----------------------------------------------13--10-----/13--13v---------------
D|--------------------------------------------------------------------------------
A|--------------------------------------------------------------------------------
E|--------------------------------------------------------------------------------

Stave 5:

E|-------------------------------------
B|----------16v-------------------16v--
G|--13--15----------------13--15-------
D|-------------------------------------
A|-------------------------------------
E|-------------------------------------

http://www.guitartabcreator.com
Guitar Tab Creator is intended to store guitar tab created through the tool. It currently does not support in-line text editing. Any text you place in here will be lost. If you need to comment on your tab, please use the "Tab Notes" section located below.