Sound will begin in 5 seconds

This is Amazing Grace

01234567891011121314151617181920212223
E
B
G
D
A
E
B
0 1 2 3 4 5 6 7 8 9 10 11 12 13 14 15 16 17 18 19 20 21 22 23
Song Science #1: How Pros Use 6 Chords to Write Hit Songs
(/) Slide Up  (\) Slide Down  (h) Hammer On  (p) Pull Off  (b) Bend (r) Release (v) Vibrato

Stave 1:

E|------------------------------------------------13--15---------------------------------------
B|--16--15--13--15-----15--13--15-----11--13--15----------------16--15--13--15-----15--13--15--
G|---------------------------------------------------------------------------------------------
D|---------------------------------------------------------------------------------------------
A|---------------------------------------------------------------------------------------------
E|---------------------------------------------------------------------------------------------

Stave 2:

E|----------------------
B|--11--13--15----------
G|--------------12--10--
D|----------------------
A|----------------------
E|----------------------

Stave 3:

E|------------------------------------------------
B|------------------------------------------------
G|------------------------------------------------
D|--8--8--8--8--8--8--8--8--8--8--10--10--12--12--
A|------------------------------------------------
E|------------------------------------------------

Stave 4:

E|------------------------------------------------------------------------------------------
B|------------------------------------------------------------------------------------------
G|---------------------------------------7--------------7--------------7--------------------
D|------------------------------------5-----5--------5-----5--------5-----5--------5--7--8--
A|--10--10--10--10--8--8--8--8-----6--------------6--------------6--------------6-----------
E|------------------------------------------------------------------------------------------

Stave 5:

E|--------------13-------------------------13--11v------------------------------------------------------
B|--11--11--11------15v--------11--11--11-----------------11--11--11--10--8v-----8/10--10--10--11--13v--
G|------------------------------------------------------------------------------------------------------
D|------------------------------------------------------------------------------------------------------
A|------------------------------------------------------------------------------------------------------
E|------------------------------------------------------------------------------------------------------

Stave 6:

E|--------------13----------------------13--11v--------------------------------
B|--11--11--11------15v-----11--11--11-----------------13/15-----15-----15p13--
G|-----------------------------------------------------------------------------
D|-----------------------------------------------------------------------------
A|-----------------------------------------------------------------------------
E|-----------------------------------------------------------------------------

http://www.guitartabcreator.com
Guitar Tab Creator is intended to store guitar tab created through the tool. It currently does not support in-line text editing. Any text you place in here will be lost. If you need to comment on your tab, please use the "Tab Notes" section located below.