Sound will begin in 5 seconds

Waste

01234567891011121314151617181920212223
E
B
G
D
A
E
B
0 1 2 3 4 5 6 7 8 9 10 11 12 13 14 15 16 17 18 19 20 21 22 23
Song Science #1: How Pros Use 6 Chords to Write Hit Songs
(/) Slide Up  (\) Slide Down  (h) Hammer On  (p) Pull Off  (b) Bend (r) Release (v) Vibrato

Stave 1:

G|-------------------------------------------------------
D|-------------------------------------------------------
A|-------------------------------------------------------
E|--2--x--x--x--3--2--x--x--x--x--6--5--9--8--12--12-----

Stave 2:

G|------------------------------------------------------------
D|------------------------------------------------------------
A|------------------------------------------------------------
E|--6--5--9--8--12--12--6--5--9--8--12--12--6--5--9--8--12b---

Stave 3:

G|--------------------------------------------------
D|--------------------------------------------------
A|-----------1--1-----------4--4--------------------
E|--2--2--2--------2--2--2--------5--5--6--6--3--3--

Stave 4:

G|---------------------------------------------------------------------------
D|---------------------------------------------------------------------------
A|---------------------------------------------------------------------------
E|--6--6--6--6--6--5r6--6--6--6--9--9--12--12--6--6--6--6--6--5--6--5--9--8--

Stave 5:

G|--------------------------------------------------
D|--------------------------------------------------
A|-----------1--1-----------4--4--------------------
E|--2--2--2--------2--2--2--------5--5--6--6--3--3--

Stave 6:

G|-------------------------
D|-------------------------
A|--4-----------4b---------
E|-----5--6--3----5b6b3b---

Stave 7:

G|-------------------------------------------------------------------
D|-------------------------------------------------------------------
A|-------------------------------------------------------------------
E|--6--6--6--6--6--5-----6--6--6--6--9--9--12--12--6--6--6--6--6--5--

Stave 8:

G|----------------------------------------------------------------------------------------------
D|----------------------------------------------------------------------------------------------
A|----------------------------------------------------------------------------------------------
E|--6--6--5--5--9--9--8--8--6--6--5--5--9--9--8--8--6--6--5--5--9--9--8--8--6b---5b---9b---8b---

Stave 9:

G|-----------------------------------------------------------------------------------------------
D|-----------------------------------------------------------------------------------------------
A|--------------------------------------1b---------------------------------------4---------------
E|--2--2--2--2--2--2--2--2--2--2--2--2-------2--2--2--2--2--2--2--2--2--2--2--2-----5b---6--3b---

http://www.guitartabcreator.com
Guitar Tab Creator is intended to store guitar tab created through the tool. It currently does not support in-line text editing. Any text you place in here will be lost. If you need to comment on your tab, please use the "Tab Notes" section located below.