Sound will begin in 5 seconds

New Song

Chords
01234567891011121314151617181920212223
E
B
G
D
A
E
B
0 1 2 3 4 5 6 7 8 9 10 11 12 13 14 15 16 17 18 19 20 21 22 23
Song Science #1: How Pros Use 6 Chords to Write Hit Songs
(/) Slide Up  (\) Slide Down  (h) Hammer On  (p) Pull Off  (b) Bend (r) Release (v) Vibrato

Stave 1:

G|-----------3-----------3-----------3-----------5--
D|-----------------------------------------3--6-----
A|--1-----------1-----------1-----------4-----------
E|-----2--1--------2--1--------2--1-----------------

Stave 2:

G|-----------------6--6--6--6--------------------------------------
D|-----------------7--7--7--7--------------------------------------
A|--1--1--1--6-----------------1--1--1--6--------------------------
E|--------------7--------------------------7--1--1--1--4--4--4-----

Stave 3:

G|-----------3-----------3-----------3-----------5--
D|-----------------------------------------3--6-----
A|--1-----------1-----------1-----------4-----------
E|-----2--1--------2--1--------2--1-----------------

Stave 4:

G|-----------------6--6--6--6-----------------------------------
D|-----------------7--7--7--7-----------------------------------
A|--1--1--1--6-----------------1--1--1--6-----------------------
E|--------------7--------------------------7--1--1--1--4--4--4--

Stave 5:

G|-----------3-----------3-----------3-----------5/---2--
D|-----------------------------------------3--6-------0--
A|--1-----------1-----------1-----------4----------------
E|-----2--1--------2--1--------2--1----------------------

Stave 6:

G|-----------------------------------------------------------------------------------------------------
D|-----------------------------4--4--4--------------------------------------4--4--4--------------------
A|--------------------6--6--6-----------3--3--3--6--6--6-----------6--6--6-----------3--3--3--6--6--6--
E|--5--5--6--7--------------------------------------------7--7--7--------------------------------------

Stave 7:

G|------------------------------------------------
D|---------------------4--4--4--------------------
A|------------6--6--6-----------3--3--3--6--6--6--
E|--7/---7/---------------------------------------

Stave 8:

G|--------------------------------------------------
D|--------------------------------------------------
A|--0-----------0--1--1--1--0-----------------1--4--
E|-----1--1--1-----------------1--1--1--1--4--------

Stave 9:

G|---------------------------------------------------
D|------------------------4--4--4--------------------
A|---------------6--6--6-----------3--3--3--6--6--6--
E|--7/---7/------------------------------------------

Stave 10:

G|--------------------------------------------------
D|--------------------------------------------------
A|--0-----------0--1--1--1--0-----------------1--4--
E|-----1--1--1-----------------1--1--1--1--4--------

Stave 11:

G|-----------3-----------3-----------3-----------5/------
D|-----------------------------------------3--6----------
A|--1-----------1-----------1-----------4----------------
E|-----2--1--------2--1--------2--1----------------------

http://www.guitartabcreator.com
Guitar Tab Creator is intended to store guitar tab created through the tool. It currently does not support in-line text editing. Any text you place in here will be lost. If you need to comment on your tab, please use the "Tab Notes" section located below.