Sound will begin in 5 seconds

Happy Place

Chords
01234567891011121314151617181920212223
E
B
G
D
A
E
B
0 1 2 3 4 5 6 7 8 9 10 11 12 13 14 15 16 17 18 19 20 21 22 23
Song Science #1: How Pros Use 6 Chords to Write Hit Songs
(/) Slide Up  (\) Slide Down  (h) Hammer On  (p) Pull Off  (b) Bend (r) Release (v) Vibrato

Stave 1:

G|--9--8-----5-----4-----9-----6--
D|--9--8-----5-----4-----9-----5--
A|--7--6-----3-----2-----7-----6--
E|--------------------------------

Stave 2:

G|-----------------------------------------------------------------------------
D|-----------------------------------------------------------------------------
A|--------------------------------------------------------------------1--1--1--
E|--2--2--2--3--2--2--2--2--3--2--2--6--5--2--2--2--3--2--2--2--2--2-----------

Stave 3:

G|-----------------------------------------------------------------------------------
D|-----------------------------------------------------------------------------------
A|-----4--3--------------4--3--------------------------------------------------------
E|--2--------5--6--5--2--------5--6--3--5--------------------------------------------

Stave 4:

G|--------------------------------------------------------------------------
D|-----------------------------------6--5-----------------------------------
A|-----------------------------------4--3-----------------------------1--1--
E|--2--2--2--3--2--2--2--2--2--3--2--------2--2--2--3--2--2--2--2--2--------

Stave 5:

G|--
D|--
A|--
E|--

Stave 6:

G|-----------------------------------------------------------------------
D|-----------------------------------------------------------------------
A|--7--7--5--7--8--7--7--5--7--------------7--7--5--7--8--7--7-----------
E|-----------------------------7--7--6--6-----------------------8--8--8--

Stave 7:

G|----------------
D|----------------
A|----------------
E|--2--------3/14b

Stave 8:

G|----------------------
D|----------------------
A|----------------------
E|--2b---3b---2b---3b---

Stave 9:

G|-----------------------------------------------------------------------
D|-----------------------------------------------------------------6-----
A|-----------------------------------------------------------------4-----
E|--2--2--2--2--2--2--2--2--2--2--2--2--2--3--3--3--3--3--3--3--3--------

http://www.guitartabcreator.com
Guitar Tab Creator is intended to store guitar tab created through the tool. It currently does not support in-line text editing. Any text you place in here will be lost. If you need to comment on your tab, please use the "Tab Notes" section located below.