Sound will begin in 5 seconds

Bower's Lament

01234567891011121314151617181920212223
E
B
G
D
A
E
B
0 1 2 3 4 5 6 7 8 9 10 11 12 13 14 15 16 17 18 19 20 21 22 23
Song Science #1: How Pros Use 6 Chords to Write Hit Songs
(/) Slide Up  (\) Slide Down  (h) Hammer On  (p) Pull Off  (b) Bend (r) Release (v) Vibrato

Stave 1:

G|--------
D|--------
A|--5--6--
E|--------

Stave 2:

G|-----------------------------
D|--------6--------------------
A|-----------6-----------------
E|--7--7--------3--3--3--6--6--

Stave 3:

G|-----------------------------------------------------------------------------------------------
D|-------------------------------------------------3---------------------------------------------
A|--5--5--5h6h5--------------5--5--5h6h5--------------5--5--5h6h5--------------5--5--5h6h5-------
E|---------------6--6--3--3---------------6--6--3------------------6--6--3--3---------------6/3--

Stave 4:

G|-----------------------------
D|--------6--------------------
A|-----------6-----------------
E|--7--7--------3--3--3--6--6--

Stave 5:

G|----------------------------------------------------------------------------------------------------
D|--------------------------------------------------3-------------------------------------------------
A|--5--5--5h6h5--------------5--5--5h6--5--------------5--5--5h6h5--------------5--5--5h6h5-----------
E|---------------6--6--3--3----------------6--6--3------------------6--6--3--3---------------6--3--0--

Stave 6:

G|----------------------------------------
D|----------------------------------------
A|--5--5--5--5--5--5--5--5--5--5--5/17\5--
E|----------------------------------------

Stave 7:

G|-----------------------------------------------------------------------------------------------
D|--------------------------------------------------------------------------------------3--3--3--
A|--5--5--3-----5--6--5--5-----------------------5--5--3--5--5--6--5--5--------------------------
E|--------------------------6--6--6--3--6--3--3--------------------------6--6--6--3--6-----------

Stave 8:

G|-----------------------8--7--6h7h6-------------------------------
D|--------------------9--------------------------------------------
A|-----------------------------------------------------------------
E|--7--7--7--7--7--6------------------7--7--7--7--7--6--6--18--18--

Stave 9:

G|--------------------------------------------------------------------------------------
D|--------------------------------------------------------------------------------------
A|-----------------------------------------------------------------5--5--5--3--5--5--5--
E|--7--7--7--6--6--6--3--5--7--7--6--0--0--0--7--7--7--6--6--3--5-----------------------

Stave 10:

G|--------
D|--------
A|--------
E|--7//7--

Stave 11:

G|--------------------------------------------------------------------------------------
D|--------------------------------------------------------------------------------------
A|-----------------------------------------------------------------5--5--5--3--5--5--5--
E|--7--7--7--6--6--6--3--5--7--7--6--0--0--0--7--7--7--6--6--3--5-----------------------

http://www.guitartabcreator.com
Guitar Tab Creator is intended to store guitar tab created through the tool. It currently does not support in-line text editing. Any text you place in here will be lost. If you need to comment on your tab, please use the "Tab Notes" section located below.