Now You're Gone!

Chords

01234567891011121314151617181920212223
E
B
G
D
A
E
B
0 1 2 3 4 5 6 7 8 9 10 11 12 13 14 15 16 17 18 19 20 21 22 23
(/) Slide Up  (\) Slide Down  (h) Hammer On  (p) Pull Off  (b) Bend (r) Release (v) Vibrato

Stave 1:

G|---------------|------------------|---------------|------------------|--------8--9-----8------------|---------------13--
D|--10-----------|------------------|--10-----------|------------------|-----9--------------9-----11--|--------16-----14--
A|---------------|--7--11-----------|---------------|--7--11-----------|--7-----------------------11--|--------16-----14--
E|---------------|------------------|---------------|------------------|------------------------------|---------------0---

Stave 2:

G|--------8--9-----8---------------------------------|--|--
D|-----9--------------9-----11--------13--14--13-----|--|--
A|--7-----------------------11--------------------14\|--|--
E|---------------------------------------------------|--|--

							http://www.guitartabcreator.com
Instruments
{"strings":[[[".","_","_","_","|",".",".","_","_","_","|",".","_","_","_","|",".",".","_","_","_","|",".",".",8,9,"_",8,".","_",".","|","_","_",".","_",13],[10,"_","_","_","|",".",".","_","_","_","|",10,"_","_","_","|",".",".","_","_","_","|",".",9,".",".","_",".",9,"_",11,"|","_","_",16,"_",14],[".","_","_","_","|",7,11,"_","_","_","|",".","_","_","_","|",7,11,"_","_","_","|",7,".",".",".","_",".",".","_",11,"|","_","_",16,"_",14],[".","_","_","_","|",".",".","_","_","_","|",".","_","_","_","|",".",".","_","_","_","|",".",".",".",".","_",".",".","_",".","|","_","_",".","_",0]],[[".",".",8,9,"_",8,".","_",".","_","_",".",".",".",".",".","|","|"],[".",9,".",".","_",".",9,"_",11,"_","_",13,14,13,".",".","|","|"],[7,".",".",".","_",".",".","_",11,"_","_",".",".",".",14,"\\","|","|"],[".",".",".",".","_",".",".","_",".","_","_",".",".",".",".",".","|","|"]]],"numberofstrings":4,"notes":["G","D","A","E"],"capo":0,"stringnotes":["G2","D2","A1","E1"],"comments":["Stave 1:","Stave 2:"],"timing":[["W",null,null,null,null,"W","W",null,null,null,null,"W",null,null,null,null,"W","W",null,null,null,null,"W","W","W","W",null,"W","W",null,"W",null,null,null,"W",null,"W"],["W","W","W","W",null,"W","W",null,"W",null,null,"W","W","W","W",null,"W"]],"timingvisible":false,"tabcounter":18,"stave":1,"totalstaves":2,"instrument":"4bass","selectedtuning":"4bass","version":"13"}

Member for

2 years 1 month
Submitted by Robert Holland on Fri, 2020-10-16 09:28