girl on the beach

Chords

01234567891011121314151617181920212223
E
B
G
D
A
E
B
0 1 2 3 4 5 6 7 8 9 10 11 12 13 14 15 16 17 18 19 20 21 22 23
(/) Slide Up  (\) Slide Down  (h) Hammer On  (p) Pull Off  (b) Bend (r) Release (v) Vibrato

Stave 1: Intro/verse 

G|--------------------|-----------------|--|-----------------------|-----------------|--|-----------------------|-----------------|-----|--
D|--------------------|-----------------|--|-----------------------|-----------------|--|-----------9--7--------|--7-----5--------|-----|--
A|--------------------|-----------------|--|-----------------------|-----7-----------|--|-----------------9-----|-----------------|-----|--
E|--7-----7-----7--7--|--5-----5--3-----|--|--7-----7-----7--9--7--|--5-----5--3-----|--|--7-----7--------------|--------------5--|--7--|--

Stave 2: verse style 2

G|--------------------|-------------------------|--
D|-----------9--7-----|------7--9--12-----------|--
A|-----------------9--|--10---------------------|--
E|--7-----7-----------|-------------------3--5--|--

Stave 3: Middle 8

G|-------------------------|-------------------------|---------------------|-------------------------|--|--
D|-------------------------|-------------------------|---------------------|-------------------------|--|--
A|-------------------------|-------------------------|---------------------|-------------14----------|--|--
E|--10-----10--10--10--11--|--12-----12--12--14--12--|--10-----10--10--11--|--12-----12------14--12--|--|--

							http://www.guitartabcreator.com
Instruments
{"strings":[[[".","_",".","_",".",".","|",".","_",".",".","_","|","|",".","_",".","_",".",".",".","|",".",".",".",".","_","|","|",".","_",".",".",".",".","_","|",".","_",".","_",".","|",".","|"],[".","_",".","_",".",".","|",".","_",".",".","_","|","|",".","_",".","_",".",".",".","|",".",".",".",".","_","|","|",".","_",".",9,7,".","_","|",7,"_",5,"_",".","|",".","|"],[".","_",".","_",".",".","|",".","_",".",".","_","|","|",".","_",".","_",".",".",".","|",".",7,".",".","_","|","|",".","_",".",".",".",9,"_","|",".","_",".","_",".","|",".","|"],[7,"_",7,"_",7,7,"|",5,"_",5,3,"_","|","|",7,"_",7,"_",7,9,7,"|",5,".",5,3,"_","|","|",7,"_",7,".",".",".","_","|",".","_",".","_",5,"|",7,"|"]],[[".","_",".",".",".",".","|",".",".",".",".","_",".",".","|"],[".","_",".",9,7,".","|",".",7,9,12,"_",".",".","|"],[".","_",".",".",".",9,"|",10,".",".",".","_",".",".","|"],[7,"_",7,".",".",".","|",".",".",".",".","_",3,5,"|"]],[[".","_",".",".",".",".","|",".","_",".",".",".",".","|",".","_",".",".",".","|",".","_",".",".",".",".","|","|"],[".","_",".",".",".",".","|",".","_",".",".",".",".","|",".","_",".",".",".","|",".","_",".",".",".",".","|","|"],[".","_",".",".",".",".","|",".","_",".",".",".",".","|",".","_",".",".",".","|",".","_",".",14,".",".","|","|"],[10,"_",10,10,10,11,"|",12,"_",12,12,14,12,"|",10,"_",10,10,11,"|",12,"_",12,".",14,12,"|","|"]]],"numberofstrings":4,"notes":["G","D","A","E"],"capo":0,"stringnotes":["G2","D2","A1","E1"],"comments":["Stave 1: Intro/verse ","Stave 2: verse style 2","Stave 3: Middle 8"],"timing":[["W",null,"W",null,"W","W",null,"W",null,"W","W",null,null,null,"W",null,"W",null,"W","W","W",null,"W","W","W","W",null,null,null,"W",null,"W","W","W","W",null,null,"W",null,"W",null,"W",null,"W"],["W",null,"W","W","W","W",null,"W","W","W","W",null,"W","W"],["W",null,"W","W","W","W",null,"W",null,"W","W","W","W",null,"W",null,"W","W","W",null,"W","W","W","W","W","W"]],"timingvisible":false,"tabcounter":28,"stave":2,"totalstaves":3,"instrument":"4bass","selectedtuning":"4bass","version":"13"}

Member for

2 years 4 months
Submitted by Robert Holland on Mon, 2020-11-16 09:57