Composition Higher

Chords

01234567891011121314151617181920212223
E
B
G
D
A
E
B
0 1 2 3 4 5 6 7 8 9 10 11 12 13 14 15 16 17 18 19 20 21 22 23
(/) Slide Up  (\) Slide Down  (h) Hammer On  (p) Pull Off  (b) Bend (r) Release (v) Vibrato

Stave 1:

E|--------------------------------------------------
B|--------------------------------------------------
G|--4--4--4--4--4--4--4--4--4--4--4--4--4--4--4--x--
D|--4--4--4--4--4--4--4--4--4--4--4--4--4--4--4--x--
A|--2--2--2--2--2--2--2--2--2--2--2--2--2--2--2--x--
E|--------------------------------------------------

Stave 2:

E|--------------------------------------2-----3--3--3-----
B|--------------------------------------3--2--3--3--3--2--
G|--4--4--4-----7--9--------4--4--4-----2--2--2--2--2--2--
D|--4--4--4-----7--9--------4--4--4--------2--2--2--2--2--
A|--2--0--2-----5--7--------2--0--2-----------------------
E|--------------------------------------------------------

Stave 3:

E|-------------------------------------------------------------------------------------------------------------------
B|------------------------------------17---------17b20r17v--p16h17-----------------------------------------------17--
G|-------------------------14--16b18------18r16---------------------17--15--17------13-------------------------------
D|------------------14h16-------------------------------------------------------15------15--13h15p-------------------
A|--14v-----14--16---------------------------------------------------------------------------------------------------
E|-------------------------------------------------------------------------------------------------------------------

Stave 4:

E|------------------------------------------------------------------------
B|------------------------------------------------------------------------
G|-----------------3h5-----------------5h7------------------7h9--9v--h14--
D|------------3h5-----------------5h7------------------7h9----------------
A|-------3h5-----------------5h7------------------7h9---------------------
E|--3h6-----------------5h8-----------------7h10--------------------------

							http://www.guitartabcreator.com
genre
Instruments
{"strings":[[[".",".",".",".",".",".",".",".",".",".",".",".",".",".",".","."],[".",".",".",".",".",".",".",".",".",".",".",".",".",".",".","."],[4,4,4,4,4,4,4,4,4,4,4,4,4,4,4,"x2"],[4,4,4,4,4,4,4,4,4,4,4,4,4,4,4,"x2"],[2,2,2,2,2,2,2,2,2,2,2,2,2,2,2,"x2"],[".",".",".",".",".",".",".",".",".",".",".",".",".",".",".","."]],[[".",".",".","_",".",".","_","_",".",".",".","_",2,".",3,3,3,"."],[".",".",".","_",".",".","_","_",".",".",".","_",3,2,3,3,3,2],[4,4,4,"_",7,9,"_","_",4,4,4,"_",2,2,2,2,2,2],[4,4,4,"_",7,9,"_","_",4,4,4,"_",".",2,2,2,2,2],[2,0,2,"_",5,7,"_","_",2,0,2,"_",".",".",".",".",".","."],[".",".",".","_",".",".","_","_",".",".",".","_",".",".",".",".",".","."]],[[".",".","_",".",".",".",".",".",".",".",".",".",".",".",".",".",".",".",".",".",".",".",".",".",".",".",".",".",".",".",".",".",".",".",".",".","_","_","_","_","_","."],[".",".","_",".",".",".",".",".",".",".",".",".",17,".",".",".",17,"b",20,"r",17,"v","p",16,"h",17,".",".",".",".",".",".",".",".",".",".","_","_","_","_","_",17],[".",".","_",".",".",".",".",".",14,16,"b",18,".",18,"r",16,".",".",".",".",".",".",".",".",".",".",17,15,17,".",13,".",".",".",".",".","_","_","_","_","_","."],[".",".","_",".",".",14,"h",16,".",".",".",".",".",".",".",".",".",".",".",".",".",".",".",".",".",".",".",".",".",15,".",15,13,"h",15,"p","_","_","_","_","_","."],[14,"v","_",14,16,".",".",".",".",".",".",".",".",".",".",".",".",".",".",".",".",".",".",".",".",".",".",".",".",".",".",".",".",".",".",".","_","_","_","_","_","."],[".",".","_",".",".",".",".",".",".",".",".",".",".",".",".",".",".",".",".",".",".",".",".",".",".",".",".",".",".",".",".",".",".",".",".",".","_","_","_","_","_","."]],[[".",".",".",".",".",".",".",".",".",".",".",".",".",".",".",".",".",".",".",".",".",".",".",".",".",".",".",".",".",".",".",".",".",".",".",".",".",".",".","."],[".",".",".",".",".",".",".",".",".",".",".",".",".",".",".",".",".",".",".",".",".",".",".",".",".",".",".",".",".",".",".",".",".",".",".",".",".",".",".","."],[".",".",".",".",".",".",".",".",".",3,"h",5,".",".",".",".",".",".",".",".",".",5,"h",7,".",".",".",".",".",".",".",".",".",7,"h",9,9,"v","h",14],[".",".",".",".",".",".",3,"h",5,".",".",".",".",".",".",".",".",".",5,"h",7,".",".",".",".",".",".",".",".",".",7,"h",9,".",".",".",".",".",".","."],[".",".",".",3,"h",5,".",".",".",".",".",".",".",".",".",5,"h",7,".",".",".",".",".",".",".",".",".",7,"h",9,".",".",".",".",".",".",".",".",".","."],[3,"h",6,".",".",".",".",".",".",".",".",".",5,"h",8,".",".",".",".",".",".",".",".",".",7,"h",10,".",".",".",".",".",".",".",".",".",".",".",".","."]]],"numberofstrings":6,"notes":["E","B","G","D","A","E","B"],"capo":0,"stringnotes":["E4","B3","G3","D3","A2","E2"],"comments":["Stave 1:","Stave 2:","Stave 3:","Stave 4:"],"timing":[["W","W","W","W","W","W","W","W","W","W","W","W","W","W","W","W"],["W","W","W","W","W","W",null,null,"W","W","W",null,"W","W","W","W","W","W"],["W",null,null,"W","W","W",null,"W","W","W",null,"W","W","W",null,"W","W",null,"W",null,"W",null,null,"W",null,"W","W","W","W","W","W","W","W",null,"W",null,"W","W","W","W",null,"W","W"],["W",null,"W","W",null,"W","W",null,"W","W",null,"W","W",null,"W","W",null,"W","W",null,"W","W",null,"W","W",null,"W","W",null,"W","W",null,"W","W",null,"W","W",null,null,"W"]],"timingvisible":false,"tabcounter":40,"stave":3,"totalstaves":4,"instrument":"6guitar","selectedtuning":"6_standard","version":"13"}

Member for

1 month 1 week
Submitted by RJManson on Mon, 2020-10-26 12:42