Sound will begin in 5 seconds

Vitali Chaconne

Chords
01234567891011121314151617181920212223
E
B
G
D
A
E
B
0 1 2 3 4 5 6 7 8 9 10 11 12 13 14 15 16 17 18 19 20 21 22 23
(/) Slide Up  (\) Slide Down  (h) Hammer On  (p) Pull Off  (b) Bend (r) Release (v) Vibrato

Stave 1:

E|--3--2--3--5--6--5--1-----3--3--2--3--5--6--5--3--3--3--2--3--5--7--7--8--10--7--8--6--4--3-----------
B|-----------------------3------------------------------------------------------------------------------
G|--3------------------------------------------------------------------------------------------3--2--0--
D|------------------------------------------------------------------------------------------------------
A|--5---------------------------------------------------------------------------------------------------
E|--3---------------------------------------------------------------------------------------------------

Stave 2:

E|-----------------4--5--2--3--7--8--8--11--8--6--5--6--5--3--1-----5--1--3--0--1--------------3--3-----
B|---------------------------------------------------------------4-----------------3--5--2--3-----4--4--
G|--0--3--8--5--7---------------------------------------------------------------------------------------
D|------------------------------------------------------------------------------------------------------
A|------------------------------------------------------------------------------------------------------
E|------------------------------------------------------------------------------------------------------

Stave 3:

E|--3--1--3--1-----0-----0--------------------------------------------8--6--5--6--------------7--5--3--
B|-----------3--3-----4--1--1--4--3--4--3-----3--1--3--1-----------1-----------------------3-----------
G|--------------------------------------4--4--------------------2--------------------0--3--------------
D|--------------------------------------------------------0--4--------------------0--------------------
A|-----------------------------------------------------------------------------------------------------
E|-----------------------------------------------------------------------------------------------------

Stave 4:

E|--5--------------5--3--1--3--------------6--5--3--2--------------8--6--5--6-----6-----8-----6-----8--
B|--------------3--------------------1--4-----------------------3--------------3-----3-----3-----3-----
G|-----------2--------------------0--------------------------2-----------------------------------------
D|-----0--3--------------------1-----------------------0--4--------------------------------------------
A|-----------------------------------------------------------------------------------------------------
E|-----------------------------------------------------------------------------------------------------

Stave 5:

E|--6-----5-----5-----6-----5-----6-----5-----3-----3-----5-----3-----5-----3-----2-----2-----2-----2--
B|-----3-----3-----3-----3-----3-----3-----3-----3-----3-----1-----1-----1-----1-----1-----1-----3-----
G|-----------------------------------------------------------------------------------------------------
D|-----------------------------------------------------------------------------------------------------
A|-----------------------------------------------------------------------------------------------------
E|-----------------------------------------------------------------------------------------------------

Stave 6:

E|-----2-----2-----6--6-----6--6--6-----6--7--8--8-----8--7--8--7-----7--7--8--8-----8--7--8--7-----7--
B|--1-----3-----1-----3--3--------3--3-----------3--3-----------3--3-----------3--3-----------3--3-----
G|-----------------------------------------------------------------------------------------------------
D|-----------------------------------------------------------------------------------------------------
A|-----------------------------------------------------------------------------------------------------
E|-----------------------------------------------------------------------------------------------------

Stave 7:

E|--5--7--5-----5--5--5-----5--6--7--7-----7--5--7--5-----5--5--7--7-----7--5--7--5-----5--3--5--3-----
B|--------3--3--------3--3-----------3--3-----------3--3-----------3--3-----------3--3-----------3--3--
G|-----------------------------------------------------------------------------------------------------
D|-----------------------------------------------------------------------------------------------------
A|-----------------------------------------------------------------------------------------------------
E|-----------------------------------------------------------------------------------------------------

Stave 8:

E|--3--3--3-----3--3--5--5-----5--3--5--3-----3--3--5--5-----5--3--5--3-----3--2--3--2-----2--2--2-----
B|--------3--3-----------1--1-----------1--1-----------1--1-----------1--1-----------1--1--------1--1--
G|-----------------------------------------------------------------------------------------------------
D|-----------------------------------------------------------------------------------------------------
A|-----------------------------------------------------------------------------------------------------
E|-----------------------------------------------------------------------------------------------------

Stave 9:

E|--2--2--2-----2--2--2-----2--2--2-----2--2--2-----2--2-----------------------------------------------
B|--------3--3--------4--4--------3--3--------0--0-----1-----------------2--1-----------------------1--
G|-----------------------------------------------------3--3--3--2--3--4--------1--------3--3--2--3-----
D|--------------------------------------------------------------------------------3--3-----------------
A|-----------------------------------------------------------------------------------------------------
E|-----------------------------------------------------------------------------------------------------

Stave 10:

E|-----------------------------------1-----------------1-----------2--4--6--2--1--2--4--1-----1--2--2--
B|--2--1-----------------1--3--3--4-----3--4--2--1-----------------------------------------4-----------
G|--------3--3--3--2--3-----------------------------3-----2--3--3--------------------------------------
D|-----------------------------------------------------------------------------------------------------
A|-----------------------------------------------------------------------------------------------------
E|-----------------------------------------------------------------------------------------------------

Stave 11:

E|--4--5--6--6-----------
B|--------------2--1-----
G|--------------------3--
D|-----------------------
A|-----------------------
E|-----------------------

http://www.guitartabcreator.com
Guitar Tab Creator is intended to store guitar tab created through the tool. It currently does not support in-line text editing. Any text you place in here will be lost. If you need to comment on your tab, please use the "Tab Notes" section located below.