Sound will begin in 5 seconds

Metalcore-ish

Chords
01234567891011121314151617181920212223
E
B
G
D
A
E
B
0 1 2 3 4 5 6 7 8 9 10 11 12 13 14 15 16 17 18 19 20 21 22 23
Song Science #1: How Pros Use 6 Chords to Write Hit Songs
(/) Slide Up  (\) Slide Down  (h) Hammer On  (p) Pull Off  (b) Bend (r) Release (v) Vibrato

Stave 1:

Db|-----------------------------------------------------
Bb|-----------------------------------------------------
Gb|-----------------------------------------------------
Db|-----------------------------------------------------
Ab|-----------------5-----------3-----------7--------5--
Db|--0--0--0--0--0-----0--0--0-----0--0--0-----0--0-----
Bb|-----------------------------------------------------

Stave 2:

Db|--------------------------------------------------------------------------
Bb|--------------------------------------------------------------------------
Gb|--------------------------------------------------------------------------
Db|--------------------------------------------------------------------------
Ab|-----------------5-----------3-----------5-----------6h8-----------10h12--
Db|--0--0--0--0--0-----0--0--0-----0--0--0-----0--0--0-------0--0--0---------
Bb|--------------------------------------------------------------------------

Stave 3:

Db|------------------------------------------------------------------------------------------
Bb|------------------------------------------------------------------------------------------
Gb|------------------------------------------------------------------------------------------
Db|------------------------------------------------------------------------------------------
Ab|-----------------5-----------3-----------5-----------6h8-----------10h12-----------12h13--
Db|--0--0--0--0--0-----0--0--0-----0--0--0-----0--0--0-------0--0--0---------0--0--0---------
Bb|------------------------------------------------------------------------------------------

Stave 4:

Db|-----------5-----------7---
Bb|-----------6-----------8---
Gb|-----------9-----------11--
Db|-----------7-----------9---
Ab|-----------5-----------7---
Db|--0--0--0--5--0--0--0--7---
Bb|--0--0--0-----0--0--0------

Stave 5:

Db|--15--13------17--15--13--------------------------
Bb|----------15--------------15--13--15--13--16--15--
Gb|--------------------------------------------------
Db|--------------------------------------------------
Ab|--------------------------------------------------
Db|--------------------------------------------------
Bb|--------------------------------------------------

http://www.guitartabcreator.com
Guitar Tab Creator is intended to store guitar tab created through the tool. It currently does not support in-line text editing. Any text you place in here will be lost. If you need to comment on your tab, please use the "Tab Notes" section located below.