Sound will begin in 5 seconds

Metal riff (in order)

Chords
01234567891011121314151617181920212223
E
B
G
D
A
E
B
0 1 2 3 4 5 6 7 8 9 10 11 12 13 14 15 16 17 18 19 20 21 22 23
Song Science #1: How Pros Use 6 Chords to Write Hit Songs
(/) Slide Up  (\) Slide Down  (h) Hammer On  (p) Pull Off  (b) Bend (r) Release (v) Vibrato

Stave 1:

E|------------------------------------------------------
B|------------------------------------------------------
G|------------------------------------------------------
D|------------------------------------------------------
A|-----------------9-----------------9--9--9--9--12\10--
D|-----------------9-----------------9--9--9--9---------
B|--0--0--0--0--0--9--0--0--0--0--0--9--9--9--9---------

Stave 2:

E|--------------------------------------------------------------------------
B|--------------------------------------------------------------------------
G|--------------------------------------------------------------------------
D|--------------------------------------------------------------------------
A|--------------------7-----------------7--7--7--9-----------------5--7--5--
D|--------------------7-----------------7--7--7--9-----------------5--5--5--
B|--0--0--0--0--0--0--7--0--0--0--0--0--7--7--7--9--0--0--0--0--0--5--5--5--

Stave 3:

E|--------------------------
B|--------------------------
G|--------------------------
D|--------------------------
A|--------------------------
D|--------------------------
B|--0--0--0--0--0--0--0--0--

Stave 4:

E|-----------------------------------------------------------------------------------------------
B|-----------------------------------------------------------------------------------------------
G|-----------------------------------------------------------------------------------------------
D|-----------------------------------------------------------------------------------------------
A|-----------------------9h10-----------------------9h10p9---------------------9--12--10--9------
D|-----------------9h12-----------------------9h12----------------------9--12----------------12--
B|--0--0--0--0--0--------------0--0--0--0--0----------------0--0--0--0---------------------------

Stave 5:

E|--------------------------------
B|--------------------------------
G|--------------------------------
D|--------------------------------
A|--------------------------------
D|--------------------------------
B|--0--0--0--0--0--0--0--0--0--0--

Stave 6:

E|-----------------------------------------------------------------------------------------------
B|-----------------------------------------------------------------------------------------------
G|-----------------------------------------------------------------------------------------------
D|-----------------------------------------------------------------------------------------------
A|--------7h8-----------------------7h8p7-----------------------7h8--------------------10--8--7--
D|--7h10----------------------7h10------------------------7h10-------------------7h10------------
B|-------------0--0--0--0--0---------------0--0--0--0--0-------------0--0--0--0------------------

Stave 7:

E|------------------------------------------------------------------------------------------
B|------------------------------------------------------------------------------------------
G|------------------------------------------------------------------------------------------
D|------------------------------------------------------------------------------------------
A|----------------------5h6----------------------5h6p5--3--5--9-----------------------9h12--
D|-----------------5h8----------------------5h8---------3--5--9-----------------9h12--------
B|--0--0--0--0--0------------0--0--0--0--0--------------3--5--9--0--0--0--0--0--------------

Stave 8:

E|---------------------------------------------------------------------------------------
B|---------------------------------------------------------------------------------------
G|---------------------------------------------------------------------------------------
D|-----------------------5--7--------5--7--------5--7--------8--7--------10--10--10--10--
A|-----------------------5--7--------5--7--------5--7--------7--5--------9---9---9---9---
D|-----------------------5--7--------5--7--------5--7--------7--5--------9---9---9---9---
B|--0--0--0--0--0--0--0--------0--0--------0--0--------0--0--------0--0------------------

Stave 9:

E|----------------------------------------------------------------------------
B|--6---------------6--------------------------6---------------------10--8--6b
G|-----9--7------------9--7---------12--9---------9--7---------10\9-----------
D|-----------10--7-----------10--7--10--10--7-----------10--7-----------------
A|----------------------------------------------------------------------------
D|----------------------------------------------------------------------------
B|----------------------------------------------------------------------------

http://www.guitartabcreator.com
Guitar Tab Creator is intended to store guitar tab created through the tool. It currently does not support in-line text editing. Any text you place in here will be lost. If you need to comment on your tab, please use the "Tab Notes" section located below.