Sound will begin in 5 seconds

MeloDeath Song

Chords
01234567891011121314151617181920212223
E
B
G
D
A
E
B
0 1 2 3 4 5 6 7 8 9 10 11 12 13 14 15 16 17 18 19 20 21 22 23
Song Science #1: How Pros Use 6 Chords to Write Hit Songs
(/) Slide Up  (\) Slide Down  (h) Hammer On  (p) Pull Off  (b) Bend (r) Release (v) Vibrato

Stave 1:

D|--------
A|--------
F|--7--7--
C|--7--7--
G|--5--5--
C|--------

Stave 2:

D|-----------------------------------------------------------------------------
A|-----------------------------------------------------------------------------
F|-----------------------------------------------------------------------------
C|--------------------------5--------------------5--7--------------5--------7--
G|--0--0--0--0--0--0--0--0--3--0--0--0--0--0--0--3--5--0--0--0--0--3--0--0--5--
C|--0--0--0--0--0--0--0--0-----0--0--0--0--0--0--------0--0--0--0-----0--0-----

Stave 3:

D|--------------------------------------------------------------------------------------
A|--------------------------------------------------------------------------------------
F|--------------------------------------------------------------------------------------
C|-----------------------------------------------1--------------------------------------
G|-----------------------------------------------1--------------------------------------
C|--0--0--0--0--0--0--0--0--0--0--0--0--0--0--0--1--0--0--0--0--0--0--0--0--0--0--0--0--

Stave 4:

D|-------------------------------------
A|-------------------------------------
F|-------------------------------------
C|--5--7--8--8--7--5--7--8--8--12--10--
G|--3--5--6--8--7--3--5--6--8--12--10--
C|-----------8--7-----------8--12--10--

Stave 5:

D|---------------------------------
A|---------------------------------
F|---------------------------------
C|--7--8--7--12--14--15--14--8--7--
G|---------------------------------
C|---------------------------------

http://www.guitartabcreator.com
Guitar Tab Creator is intended to store guitar tab created through the tool. It currently does not support in-line text editing. Any text you place in here will be lost. If you need to comment on your tab, please use the "Tab Notes" section located below.