Sound will begin in 5 seconds

untitled1

01234567891011121314151617181920212223
E
B
G
D
A
E
B
0 1 2 3 4 5 6 7 8 9 10 11 12 13 14 15 16 17 18 19 20 21 22 23
Song Science #1: How Pros Use 6 Chords to Write Hit Songs
(/) Slide Up  (\) Slide Down  (h) Hammer On  (p) Pull Off  (b) Bend (r) Release (v) Vibrato

Stave 1:

E|-----------------------------------------------------------------------5-----
B|-----------------3-----------------3-----------------6--------------------8--
G|--------0-----------------0-----------------5-----------------5--------------
D|-----4--------4--------4--------4--------7--------7--------7--------7--------
A|--5--------5--------5--------5--------8--------8--------8--------8-----------
E|-----------------------------------------------------------------------------

Stave 2:

E|--2-----2-----2-----2-----2-----2--------5-----5-----5-----5-----5-----5-----
B|-----3-----3-----3-----3-----3-----3--7-----8-----8-----8-----8-----8-----8--
G|-----------------------------------------------------------------------------
D|-----------------------------------------------------------------------------
A|-----------------------------------------------------------------------------
E|-----------------------------------------------------------------------------

Stave 3:

E|-----------------------------------------------------
B|--3-----------------------3--------------------------
G|-----0-----0--------0--------0-----0--------0--------
D|--------4-----4--------4--------4-----4--------4-----
A|-----------------5-----------------------5--------3--
E|-----------------------------------------------------

Stave 4:

E|--5-----------0-----0-----
B|-----6-----------6-----6--
G|--------5-----------------
D|-----------7--------------
A|--------------------------
E|--------------------------

Stave 5:

E|--------------------------------------------------------------------------------------------------
B|--3-----------------------3-----------------------------------5--3--------------------5--3--------
G|-----0--------0--------------0--------0-----------------4-----------4-----------4-----------4-----
D|--------4--------4--------------4--------4-----------5-----5-----------5-----5-----5-----------5--
A|-----------5--------5--------------5--------5-----3-----------------------3-----------------------
E|-----------------------7-----------------------7--------------------------------------------------

Stave 6:

E|--------------------------------------------------------------------------------------------------
B|--3-----------------------3-----------------------------------3-----------------------5--3--------
G|-----0--------0--------------0--------0-----------------4--------4-----4--------4-----------4--2--
D|--------4--------4--------------4--------4-----------5-----5--------5--------5-----5--------------
A|-----------5--------5--------------5--------5-----3-----------------------3-----------------------
E|-----------------------7-----------------------7--------------------------------------------------

http://www.guitartabcreator.com
Guitar Tab Creator is intended to store guitar tab created through the tool. It currently does not support in-line text editing. Any text you place in here will be lost. If you need to comment on your tab, please use the "Tab Notes" section located below.