jodie-esque

01234567891011121314151617181920212223
E
B
G
D
A
E
B
0 1 2 3 4 5 6 7 8 9 10 11 12 13 14 15 16 17 18 19 20 21 22 23
(/) Slide Up  (\) Slide Down  (h) Hammer On  (p) Pull Off  (b) Bend (r) Release (v) Vibrato

Stave 1:

E|--------------------------------------------------------------------------------------------------------------------------------------------------
B|--------------------------------------------------------------------------------------------------------------------------------------------------
G|--------------------------------------------------------------------------------------------------------------------------------------------------
D|--------------------------------------------------------------------------------------------------------------------------------------------------
A|-----------------------3--3--------------------------------5--5--------------------------------7--7--------------------------------5--5-----8--8--
E|--1--1--1--1--1--1--------------1--1--3--3--3--3--3--3--------------3--3--5--5--5--5--5--5--------------5--5--8--8--8--8--8--8-----8--8-----8--8--

Stave 2:

E|-----------------------------------------------------------------------------------
B|--------------------------0--------------------------------------------------------
G|--------------------------0-----------------5--------------------5-----------------
D|--3-----------------------5--------------------------------------------------------
A|--------3--3-----------------5--5-----------------7--7-----------------5--5--8-----
E|--1--------------1--1-----3-----------3--3--5--------------5--5--8-----8--8--8-----

							http://www.guitartabcreator.com
Chords

Instruments
{"strings":[[[".",".",".",".",".",".","_",".",".","_",".",".",".",".",".",".",".",".","_",".",".","_",".",".",".",".",".",".",".",".","_",".",".","_",".",".",".",".",".",".",".",".","_",".",".","_",".","."],[".",".",".",".",".",".","_",".",".","_",".",".",".",".",".",".",".",".","_",".",".","_",".",".",".",".",".",".",".",".","_",".",".","_",".",".",".",".",".",".",".",".","_",".",".","_",".","."],[".",".",".",".",".",".","_",".",".","_",".",".",".",".",".",".",".",".","_",".",".","_",".",".",".",".",".",".",".",".","_",".",".","_",".",".",".",".",".",".",".",".","_",".",".","_",".","."],[".",".",".",".",".",".","_",".",".","_",".",".",".",".",".",".",".",".","_",".",".","_",".",".",".",".",".",".",".",".","_",".",".","_",".",".",".",".",".",".",".",".","_",".",".","_",".","."],[".",".",".",".",".",".","_",3,3,"_",".",".",".",".",".",".",".",".","_",5,5,"_",".",".",".",".",".",".",".",".","_",7,7,"_",".",".",".",".",".",".",".",".","_",5,5,"_",8,8],[1,1,1,1,1,1,"_",".",".","_",1,1,3,3,3,3,3,3,"_",".",".","_",3,3,5,5,5,5,5,5,"_",".",".","_",5,5,8,8,8,8,8,8,"_",8,8,"_",8,8]],[[".","_",".",".","_",".",".","_",".",".",".","_",".",".",".","_",".",".","_",".",".",".","_",".",".",".","_"],[".","_",".",".","_",".",".","_",0,".",".","_",".",".",".","_",".",".","_",".",".",".","_",".",".",".","_"],[".","_",".",".","_",".",".","_",0,".",".","_",".",".",5,"_",".",".","_",".",".",5,"_",".",".",".","_"],[3,"_",".",".","_",".",".","_",5,".",".","_",".",".",".","_",".",".","_",".",".",".","_",".",".",".","_"],[".","_",3,3,"_",".",".","_",".",5,5,"_",".",".",".","_",7,7,"_",".",".",".","_",5,5,8,"_"],[1,"_",".",".","_",1,1,"_",3,".",".","_",3,3,5,"_",".",".","_",5,5,8,"_",8,8,8,"_"]]],"numberofstrings":6,"notes":["E","B","G","D","A","E","B"],"capo":0,"stringnotes":["E4","B3","G3","D3","A2","E2"],"comments":["Stave 1:","Stave 2:"],"timing":[["W","W","W","W","W","W",null,"W","W",null,"W","W","W","W","W","W","W","W",null,"W","W",null,"W","W","W","W","W","W","W","W",null,"W","W",null,"W","W","W","W","W","W","W","W","W","W","W",null,"W","W"],["W",null,"W","W",null,"W","W",null,"W","W","W",null,"W","W","W",null,"W","W",null,"W","W","W",null,"W","W","W","W"]],"timingvisible":false,"tabcounter":27,"stave":1,"totalstaves":2,"instrument":"6guitar","selectedtuning":"6_standard","version":"13"}

Member for

5 years 7 months
Submitted by ringo_0 on Wed, 2021-03-03 20:22