i was a kaleidoscope

Chords

01234567891011121314151617181920212223
E
B
G
D
A
E
B
0 1 2 3 4 5 6 7 8 9 10 11 12 13 14 15 16 17 18 19 20 21 22 23
(/) Slide Up  (\) Slide Down  (h) Hammer On  (p) Pull Off  (b) Bend (r) Release (v) Vibrato

Stave 1:

E|--------------------------------------------------------------------------------------
B|--------------------------------------------------------------------------------------
G|--2-----------------2--------------------4--------------------2--------------------2--
D|--2--------------0--0-----------0--4--0--2-----0-----0-----0--0-----0-----0--------2--
A|--0-----0--2--4-----------0--4--------------------4-----4--------------4-----4--2--0--
E|-----0--------------------------------------------------------------------------------

Stave 2:

E|-------------------------------------------------------------------------------------------
B|-------------------------------------------------------------------------------------------
G|--2--------------------2-------------------------------------------------------------------
D|--2-----------------0--0-----------0--4----------------------------------------------------
A|--0--------0--2--4-----------0--4--------5/7--7--7/11--11/12\11--11/14\11--11--12--12--12--
E|--------0----------------------------------------------------------------------------------

Stave 3:

E|-------------------------------------------------------------------------------------------
B|-------------------------------------------------------------------------------------------
G|--2--------------------2-------------------------------------------------------------------
D|--2-----------------0--0-----------0--4----------------------------------------------------
A|--0--------0--2--4-----------0--4--------5/7--7--7--5--4--5--4--2--5--5--5--4--2--4--2--0--
E|--------0----------------------------------------------------------------------------------

Stave 4:

E|--------------------------------------------------------------------------------------
B|--------------------------------------------------------------------------------------
G|--2--------------------------------------------------------------------------------2--
D|--2--------------------7-----------------9--------------------7--------------------2--
A|--0--------------4--5--5-----0--4--5/9\5/7-----5--4--5--4--5--5-----5--2--4--2--0--0--
E|--------0--5--7-----------------------------------------------------------------------

							http://www.guitartabcreator.com
Instruments
{"strings":[[[".",".",".",".",".",".",".","_",".",".",".",".",".",".","_",".",".",".",".",".",".","_",".",".",".",".",".","."],[".",".",".",".",".",".",".","_",".",".",".",".",".",".","_",".",".",".",".",".",".","_",".",".",".",".",".","."],[2,".",".",".",".",".",2,"_",".",".",".",".",".",4,"_",".",".",".",".",".",2,"_",".",".",".",".",".",2],[2,".",".",".",".",0,0,"_",".",".",0,4,0,2,"_",0,".",0,".",0,0,"_",0,".",0,".",".",2],[0,".",0,2,4,".",".","_",0,4,".",".",".",".","_",".",4,".",4,".",".","_",".",4,".",4,2,0],[".",0,".",".",".",".",".","_",".",".",".",".",".",".","_",".",".",".",".",".",".","_",".",".",".",".",".","."]],[[".","_",".",".",".",".",".",".","_",".",".",".",".",".",".",".",".",".",".",".",".",".",".",".",".",".",".",".",".",".",".",".",".","."],[".","_",".",".",".",".",".",".","_",".",".",".",".",".",".",".",".",".",".",".",".",".",".",".",".",".",".",".",".",".",".",".",".","."],[2,"_",".",".",".",".",".",2,"_",".",".",".",".",".",".",".",".",".",".",".",".",".",".",".",".",".",".",".",".",".",".",".",".","."],[2,"_",".",".",".",".",0,0,"_",".",".",0,4,".",".",".",".",".",".",".",".",".",".",".",".",".",".",".",".",".",".",".",".","."],[0,"_",".",0,2,4,".",".","_",0,4,".",".",5,"/",7,7,7,"/",11,11,"/",12,"\\",11,11,"/",14,"\\",11,11,12,12,12],[".","_",0,".",".",".",".",".","_",".",".",".",".",".",".",".",".",".",".",".",".",".",".",".",".",".",".",".",".",".",".",".",".","."]],[[".","_",".",".",".",".",".",".","_",".",".",".",".",".",".",".",".",".",".",".",".",".",".",".",".",".",".",".",".",".","."],[".","_",".",".",".",".",".",".","_",".",".",".",".",".",".",".",".",".",".",".",".",".",".",".",".",".",".",".",".",".","."],[2,"_",".",".",".",".",".",2,"_",".",".",".",".",".",".",".",".",".",".",".",".",".",".",".",".",".",".",".",".",".","."],[2,"_",".",".",".",".",0,0,"_",".",".",0,4,".",".",".",".",".",".",".",".",".",".",".",".",".",".",".",".",".","."],[0,"_",".",0,2,4,".",".","_",0,4,".",".",5,"/",7,7,7,5,4,5,4,2,5,5,5,4,2,4,2,0],[".","_",0,".",".",".",".",".","_",".",".",".",".",".",".",".",".",".",".",".",".",".",".",".",".",".",".",".",".",".","."]],[[".","_",".",".",".",".",".",".","_",".",".",".",".",".",".",".",".",".","_",".",".",".",".",".",".","_",".",".",".",".",".","."],[".","_",".",".",".",".",".",".","_",".",".",".",".",".",".",".",".",".","_",".",".",".",".",".",".","_",".",".",".",".",".","."],[2,"_",".",".",".",".",".",".","_",".",".",".",".",".",".",".",".",".","_",".",".",".",".",".",".","_",".",".",".",".",".",2],[2,"_",".",".",".",".",".",7,"_",".",".",".",".",".",".",".",".",9,"_",".",".",".",".",".",7,"_",".",".",".",".",".",2],[0,"_",".",".",".",4,5,5,"_",0,4,5,"/",9,"\\",5,"/",7,"_",5,4,5,4,5,5,"_",5,2,4,2,0,0],[".","_",0,5,7,".",".",".","_",".",".",".",".",".",".",".",".",".","_",".",".",".",".",".",".","_",".",".",".",".",".","."]]],"numberofstrings":6,"notes":["E","B","G","D","A","E","B"],"capo":0,"stringnotes":["E4","B3","G3","D3","A2","E2"],"comments":["Stave 1:","Stave 2:","Stave 3:","Stave 4:"],"timing":[["W","W","W","W","W","W","W",null,"W","W","W","W","W","W",null,"W","W","W","W","W","W",null,"W","W","W","W","W","W"],["W",null,"W","W","W","W","W","W",null,"W","W","W","W","W","W","W","W","W","W","W","W","W","W","W","W","W","W","W","W","W","W","W","W","W"],["W",null,"W","W","W","W","W","W",null,"W","W","W","W","W",null,"W","W","W","W","W","W","W","W","W","W","W","W","W","W","W","W"],["W",null,"W","W","W","W","W","W",null,"W","W","W",null,"W",null,"W",null,"W",null,"W","W","W","W","W","W",null,"W","W","W","W","W","W"]],"timingvisible":false,"tabcounter":31,"stave":3,"totalstaves":4,"instrument":"6guitar","selectedtuning":"6_standard","version":"13"}

Member for

5 years 2 months
Submitted by ringo_0 on Fri, 2020-11-20 18:46