Sound will begin in 5 seconds

gypsie riffie

01234567891011121314151617181920212223
E
B
G
D
A
E
B
0 1 2 3 4 5 6 7 8 9 10 11 12 13 14 15 16 17 18 19 20 21 22 23
Song Science #1: How Pros Use 6 Chords to Write Hit Songs
(/) Slide Up  (\) Slide Down  (h) Hammer On  (p) Pull Off  (b) Bend (r) Release (v) Vibrato

Capo Fret 6

Stave 1:

Eb|-----11------------------------7-------------------------
Bb|------------7-----11-----7-----------7-----9--7----------
Gb|--8------8-----8------8-----8-----8-----8--------10------
Db|-----------------------------------------------------11--
Ab|---------------------------------------------------------
Eb|---------------------------------------------------------

Stave 2:

Eb|--------------------------
Bb|-----4-----6-----7-----6--
Gb|--6-----6-----6-----6-----
Db|--------------------------
Ab|--------------------------
Eb|--------------------------

http://www.guitartabcreator.com
Guitar Tab Creator is intended to store guitar tab created through the tool. It currently does not support in-line text editing. Any text you place in here will be lost. If you need to comment on your tab, please use the "Tab Notes" section located below.