Sound will begin in 5 seconds

dark and happy

Chords
01234567891011121314151617181920212223
E
B
G
D
A
E
B
0 1 2 3 4 5 6 7 8 9 10 11 12 13 14 15 16 17 18 19 20 21 22 23
Song Science #1: How Pros Use 6 Chords to Write Hit Songs
(/) Slide Up  (\) Slide Down  (h) Hammer On  (p) Pull Off  (b) Bend (r) Release (v) Vibrato

Stave 1:

E|--5--5--5--6--8---
B|--6--6--5--6--8---
G|--7--7--6--7--9---
D|--8--7--7--8--10--
A|--5--5--7--8--10--
E|--------5--6--8---

Stave 2:

E|--------------------------------
B|--------------------------------
G|-----------------9--9--9--9--9--
D|--9--9--9--9--9--7--7--7--7--7--
A|--7--7--7--5--7--7--7--7--5--7--
E|--5--7--9--------5--7--9--------

Stave 3:

E|--------------------------------------------------------------------------------------------
B|--------------------------------------------------------------------------------------------
G|-----7--9b---7--4--7--------4--------------7--9--------7--9-----14-----14--11--9--9--11-----
D|--9----------------------7-----7--5-----9--------7--9---------------------------------------
A|--------------------------------------------------------------------------------------------
E|--------------------------------------------------------------------------------------------

http://www.guitartabcreator.com
Guitar Tab Creator is intended to store guitar tab created through the tool. It currently does not support in-line text editing. Any text you place in here will be lost. If you need to comment on your tab, please use the "Tab Notes" section located below.