Sound will begin in 5 seconds

RG pentatonic shifting and alternate picking

01234567891011121314151617181920212223
E
B
G
D
A
E
B
0 1 2 3 4 5 6 7 8 9 10 11 12 13 14 15 16 17 18 19 20 21 22 23
Song Science #1: How Pros Use 6 Chords to Write Hit Songs
(/) Slide Up  (\) Slide Down  (h) Hammer On  (p) Pull Off  (b) Bend (r) Release (v) Vibrato

Stave 1:

E|---------------------------------------------------------15--17--19--17--15----------------------
B|---------------------------------------------12--15--17----------------------17--15--------------
G|----------------------------------9--12--14------------------------------------------16----------
D|------------------------7--9--12---------------------------------------------------------19--17--
A|--------------5--7--10---------------------------------------------------------------------------
E|--0--3--5--7-------------------------------------------------------------------------------------

Stave 2:

E|--------------------------15--17--19--17--15--12----------------------------------------------12--15--17--
B|------------------15--17--------------------------15--12------------------------------12--15--------------
G|--------------16------------------------------------------14--12--------------12--14----------------------
D|--14--17--19------------------------------------------------------14--12--14------------------------------
A|----------------------------------------------------------------------------------------------------------
E|----------------------------------------------------------------------------------------------------------

Stave 3:

E|--15--12--10-------------------------------------------10--12--15--12--10--7------------------
B|--------------12--10---------------------------10--12-------------------------8---------------
G|----------------------12--9-------------9--12------------------------------------9--7---------
D|-----------------------------12--9--12-------------------------------------------------9------
A|------------------------------------------------------------------------------------------10--
E|----------------------------------------------------------------------------------------------

Stave 4:

E|-----------------------------------------------------------------------------------------------
B|-----------------------------------------------------------------------------------------------
G|---------------7--9--------7--9---------9--12----------12--14----------14--16----------16--19--
D|---------7--9--------7--9--------9--12---------12--14----------14--17----------17--19----------
A|--7--10----------------------------------------------------------------------------------------
E|-----------------------------------------------------------------------------------------------

Stave 5:

E|----------------------19--23--19--22--23--22--19------------------------------
B|------------------20------------------------------22--20----------------------
G|----------19--21------------------------------------------21--19--------------
D|--19--21----------------------------------------------------------21----------
A|----------------------------------------------------------------------22--19--
E|------------------------------------------------------------------------------

http://www.guitartabcreator.com
Guitar Tab Creator is intended to store guitar tab created through the tool. It currently does not support in-line text editing. Any text you place in here will be lost. If you need to comment on your tab, please use the "Tab Notes" section located below.