Sound will begin in 5 seconds

RG ii V I jizz lick

01234567891011121314151617181920212223
E
B
G
D
A
E
B
0 1 2 3 4 5 6 7 8 9 10 11 12 13 14 15 16 17 18 19 20 21 22 23
Song Science #1: How Pros Use 6 Chords to Write Hit Songs
(/) Slide Up  (\) Slide Down  (h) Hammer On  (p) Pull Off  (b) Bend (r) Release (v) Vibrato

Stave 1:

E|------------------------------12-16-19-16-------
B|---------------------12-13-14-------------17----
G|------------11-13-14-------------------------18-
D|---------11-------------------------------------
A|-9-11-12----------------------------------------
E|------------------------------------------------

Stave 2:

E|-14-------14-11-------11-7-------7-3-------
B|----18-17-------15-14------11-10-----4-----
G|---------------------------------------5-3-
D|-------------------------------------------
A|-------------------------------------------
E|-------------------------------------------

Stave 3:

E|-----------------------------7-9-10-11-
B|---------------------------9-----------
G|-4-----4--------------8-11-------------
D|---8-7---6----------9------------------
A|-----------7-6-7-11--------------------
E|---------------------------------------

Stave 4:

E|-14-11----------------------14-15-16-
B|-------12-------------14-17----------
G|----------13-11-13-16----------------
D|-------------------------------------
A|-------------------------------------
E|-------------------------------------

http://www.guitartabcreator.com
Guitar Tab Creator is intended to store guitar tab created through the tool. It currently does not support in-line text editing. Any text you place in here will be lost. If you need to comment on your tab, please use the "Tab Notes" section located below.