Sound will begin in 5 seconds

Modal sweep workout

01234567891011121314151617181920212223
E
B
G
D
A
E
B
0 1 2 3 4 5 6 7 8 9 10 11 12 13 14 15 16 17 18 19 20 21 22 23
Song Science #1: How Pros Use 6 Chords to Write Hit Songs
(/) Slide Up  (\) Slide Down  (h) Hammer On  (p) Pull Off  (b) Bend (r) Release (v) Vibrato

Stave 1:

E|--------------2--3--5--2--------------------------3--5--7--3--------------------------5--7--9--5-----------
B|-----------3--------------3--------------------5--------------5--------------------7--------------7--------
G|--------2--------------------2--------------4--------------------4--------------6--------------------6-----
D|-----4--------------------------4--------5--------------------------5--------7--------------------------7--
A|--5--------------------------------5--7--------------------------------7--9--------------------------------
E|-----------------------------------------------------------------------------------------------------------

Stave 2:

E|------------------7--8--10--7------------------------------9--10--12--9---------------------------------10--
B|---------------8---------------8-----------------------10----------------10-------------------------12------
G|------------7---------------------7-----------------9------------------------9------------------11----------
D|---------9---------------------------9----------11------------------------------11----------12--------------
A|--9--10---------------------------------10--12--------------------------------------12--14------------------
E|------------------------------------------------------------------------------------------------------------

Stave 3:

E|--12--14--10----------------------------------12--14--15--12----------------------------------14--15--17--
B|--------------12--------------------------12------------------12--------------------------15--------------
G|------------------11------------------12--------------------------12------------------14------------------
D|----------------------12----------14----------------------------------14----------16----------------------
A|--------------------------14--16------------------------------------------16--17--------------------------
E|----------------------------------------------------------------------------------------------------------

Stave 4:

E|--14------------------
B|------15--------------
G|----------14----------
D|--------------16------
A|------------------17--
E|----------------------

http://www.guitartabcreator.com
Guitar Tab Creator is intended to store guitar tab created through the tool. It currently does not support in-line text editing. Any text you place in here will be lost. If you need to comment on your tab, please use the "Tab Notes" section located below.