Sound will begin in 5 seconds

Asgore

Chords
01234567891011121314151617181920212223
E
B
G
D
A
E
B
0 1 2 3 4 5 6 7 8 9 10 11 12 13 14 15 16 17 18 19 20 21 22 23
Song Science #1: How Pros Use 6 Chords to Write Hit Songs
(/) Slide Up  (\) Slide Down  (h) Hammer On  (p) Pull Off  (b) Bend (r) Release (v) Vibrato

Stave 1:

E|------------------------------------------------------------------------------------------------------------------------------------------------------
B|-----9------------7-----------5-----------2-----------9---------12-------------------------12--14-----17-----16--14--12--16--14-----------------------
G|--9-----11-----8-----9-----6-----8-----4-----1-----9-----11---------11--13-----13--11--13-------------------------------------------------------------
D|------------------------------------------------------------------------------------------------------------------------------------------------------
A|------------------------------------------------------------------------------------------------------------------------------------------------------
E|------------------------------------------------------------------------------------------------------------------------------------------------------

Stave 2:

E|--------------------------------------------------------------------------------
B|-----9----------------------------9-----------9-------------------------12------
G|--9-----11-----11--13----------9-----------9-----11-----11--13--------------13--
D|-----------------------11--13-----------------------------------11--13----------
A|--------------------------------------------------------------------------------
E|--------------------------------------------------------------------------------

Stave 3:

E|---------------------------------------------------11---------------------------------
B|---------10--12-----14----------10--12-----14----------12/9-----10--9--7--------5--4--
G|-----13-----------------11--13-----------------13-------------------------------------
D|--------------------------------------------------------------------------------------
A|--------------------------------------------------------------------------------------
E|--------------------------------------------------------------------------------------

Stave 4:

E|-------------------------------------------------------------------------
B|-------------------------------------12--9-------------------------------
G|--------8--9--8--9-------------8--9------0-----------11--9--8---------8--
D|--------------------11-----11---------------------9------------11--9-----
A|-------------------------------------------------------------------------
E|-------------------------------------------------------------------------

Stave 5:

E|------------------------13--15--13--12-----------------------------13----------------13--15--17-----13--15--17--15--13--15--------12--------------------
B|-----14-------------14------------------13--15-------------------------15--------15---------------------------------------------------13--15--------13--
G|------------13--16---------------------------------14--14--17--17---------------------------------------------------------------------------------------
D|--------------------------------------------------------------------------------------------------------------------------------------------------------
A|--------------------------------------------------------------------------------------------------------------------------------------------------------
E|--------------------------------------------------------------------------------------------------------------------------------------------------------

Stave 6:

E|-----12--11--9------9------------------------------------12--11--9------9---------------------------------
B|----------------12-----9--12----------------8--12--9----------------12-----9--12--------------------------
G|--------------------------0---11--7--9--10----------------------------------------11--7--9--10--9------7--
D|---------------------------------------------------------------------------------------------------10-----
A|----------------------------------------------------------------------------------------------------------
E|----------------------------------------------------------------------------------------------------------

Stave 7:

E|--------
B|--------
G|--------
D|--------
A|--------
E|--------

http://www.guitartabcreator.com
Guitar Tab Creator is intended to store guitar tab created through the tool. It currently does not support in-line text editing. Any text you place in here will be lost. If you need to comment on your tab, please use the "Tab Notes" section located below.